Guitar Tabs
song title    band name

Join Us Today!

Don't strum alone...
be a part of the largest online Christian music community. Browse thousands of guitar tabs and chat w/ musicians like yourself.


It's Free!

This tab has been rated a 4.92 out of 5 for accuracy. (12 votes)Sorry, but you must be logged in to rate this tab.
Click here to log-in, or you can click here to register.
(Registration is free)

All songs owned by corresponding publishing company. If you make copies of any song on this website, be sure to report your usage to CCLI.
Submitted by: Adam K

Demon Hunter-Undying
From:The Triptych 
Drop B Tuning B-F#-B-E-G#-C#

palm mute=..., etc.
s=slide
S>=slide up

Intro
Gtr. 1
E [-------5-8-----7-10-------10-6s7--------5-7-----5-7--------------]
B [-1/0/0-x-x-0/0-x--x-00000--x-xsx--1/0/0-x-x-0/0-x-x-0/0/0--3/2/0-]
F#[-1/0/0-3-6-0/0-5--8-00000--8-4s5--1/0/0-3-5-0/0-3-5-0/0/0--3/2/0-]x2
B [-1/0/0-----0/0------00000---------1/0/0-----0/0-----0/0/0--3/2/0-]
                       .....         
Then both guitars kick in.
E [-------5-8-----7-10-------10-6s7--------5-7-----5-7--------------]
B [-1/0/0-x-x-0/0-x--x-00000--x-xsx--1/0/0-x-x-0/0-x-x-0/0/0--3/2/0-]
F#[-1/0/0-3-6-0/0-5--8-00000--8-4s5--1/0/0-3-5-0/0-3-5-0/0/0--3/2/0-]x2
B [-1/0/0-----0/0------00000---------1/0/0-----0/0-----0/0/0--3/2/0-]
                       .....
Interlude
B [---0/0---0/0---0/0---0/0---0------0/0---0/0---0/0---0/0-----]
F#[-3-0/0-3-0/0-3-0/0-3-0/0-5/0/5--3-0/0-3-0/0-3-0/0-5-0/0-5-1-]
B [---0/0---0/0---0/0---0/0---0------0/0---0/0---0/0---0/0-----]

Verse 1
B [---0/0---0/0---0/0---0/0---0------0/0---0/0---0/0---0/0-----]
F#[-3-0/0-3-0/0-3-0/0-3-0/0-5/0/5--3-0/0-3-0/0-3-0/0-5-0/0-5-1-]x2
B [---0/0---0/0---0/0---0/0---0------0/0---0/0---0/0---0/0-----]

B [---0/0---0/0---0/0---0/0---0------0/0---0/0---0/0---0/0-----]
F#[-3-0/0-3-0/0-3-0/0-3-0/0-5/0/5--3-0/0-3-0/0-3-0/0-5-0/0-5-1-]x2
B [---0/0---0/0---0/0---0/0---0------0/0---0/0---0/0---0/0-----]
      ...   ...   ...   ...   .      ...   ...   ...   ...

Pre-Chorus
Gtr. 2
E [-5----7-]
B [-x----x-]
F#[-3----5-]
Gtr. 1
C#[-14--14--14--14--14--14--14--14---]
G#[---15--15--15--15--15--15--15--15-]

Chorus
Gtr. 2
B [-3--1----6----8-]
F#[-3--1----6----8-]x4
B [-3--1----6----8-]
Gtr. 1
E [-13--12----5----7-]
B [--x---x----x----x-]x4
F#[-11--10----3----5-]

Post-Chorus
Both guitars
E [-------5-8-----7-10-------10-6s7--------5-7-----5-7--------------]
B [-1/0/0-x-x-0/0-x--x-00000--x-xsx--1/0/0-x-x-0/0-x-x-0/0/0--3/2/0-]
F#[-1/0/0-3-6-0/0-5--8-00000--8-4s5--1/0/0-3-5-0/0-3-5-0/0/0--3/2/0-]
B [-1/0/0-----0/0------00000---------1/0/0-----0/0-----0/0/0--3/2/0-]
                       .....         

Interlude

Verse 2
B [---0/0---0/0---0/0---0/0---0------0/0---0/0---0/0---0/0-----]
F#[-3-0/0-3-0/0-3-0/0-3-0/0-5/0/5--3-0/0-3-0/0-3-0/0-5-0/0-5-1-]
B [---0/0---0/0---0/0---0/0---0------0/0---0/0---0/0---0/0-----]

B [---0/0---0/0---0/0---0/0---0------0/0---0/0---0/0---0/0-----]
F#[-3-0/0-3-0/0-3-0/0-3-0/0-5/0/5--3-0/0-3-0/0-3-0/0-5-0/0-5-1-]x2
B [---0/0---0/0---0/0---0/0---0------0/0---0/0---0/0---0/0-----]
      ...   ...   ...   ...   .      ...   ...   ...   ...

Pre-Chorus

Chorus

Bridge
It starts with this
Gtr. 2
B [-0------------------]
F#[-0-let it ring------]
B [-0------------------]
Gtr. 1
B [-7--7--7--7--10-10-8--8--8--8--6-6-]
F#[--00-00-00-00--0----00-00-00-00-0--]x2
Then
Gtr. 2
B [-0000-0/00/00-0000/00-S>-S>-]
F#[-0000-0/00/00-0000/00-S>-S>-]x4
B [-0000-0/00/00-0000/00-S>-S>-]
Gtr. 1
B [-7--7--7--7--10-10-8--8--8--8--6-6-]
F#[--00-00-00-00--0----00-00-00-00-0--]x4
Then both guitars
B [-0000-0/00/00-0000/00-S>-S>-]
F#[-0000-0/00/00-0000/00-S>-S>-]x4
B [-0000-0/00/00-0000/00-S>-S>-]

Pre-Chorus x2

Chorus

Ending
Gtr. 2
E [-------5-8-----7-10-------10-6s7--------5-7-----5-7--------------]
B [-1/0/0-x-x-0/0-x--x-00000--x-xsx--1/0/0-x-x-0/0-x-x-0/0/0--3/2/0-]
F#[-1/0/0-3-6-0/0-5--8-00000--8-4s5--1/0/0-3-5-0/0-3-5-0/0/0--3/2/0-]x2
B [-1/0/0-----0/0------00000---------1/0/0-----0/0-----0/0/0--3/2/0-]
                       .....         
Then
Gtr. 1
E [-7----8-----5----8---]
B [-x----x-----x----x---]
F#[-5----6-----3----6---]
Then this for the rest of the song for Gtr. 1 
E [--7--]
B [--x--]
F#[--5--]
Gtr. 2
E [-------5-8-----7-10-------10-6s7--------5-7-----5-7--------------]
B [-1/0/0-x-x-0/0-x--x-00000--x-xsx--1/0/0-x-x-0/0-x-x-0/0/0--3/2/0-]
F#[-1/0/0-3-6-0/0-5--8-00000--8-4s5--1/0/0-3-5-0/0-3-5-0/0/0--3/2/0-]
B [-1/0/0-----0/0------00000---------1/0/0-----0/0-----0/0/0--3/2/0-]
                       .....         
E [-------5-8-----7-10-------10-6s7--------5-7-----5-7-]
B [-1/0/0-x-x-0/0-x--x-00000--x-xsx--1/0/0-x-x-0/0-x-x-]
F#[-1/0/0-3-6-0/0-5--8-00000--8-4s5--1/0/0-3-5-0/0-3-5-]
B [-1/0/0-----0/0------00000---------1/0/0-----0/0-----]
                       .....         

Then
(It's kinda muffled)
Gtr. 2
E [-5----7-]
B [-x----x-]x2
F#[-3----5-]
Gtr. 1
C#[-14--14--14--14--14--14--14--14---]
G#[---15--15--15--15--15--15--15--15-]x2

Tabbed by Adam K




Comments about this tab

Jimbo12 - 2005-12-14

Dude, you flat out rock man.


Da Flufsta - 2006-01-31

i'm confused what does it mean when you go 1/0/0
why not just go 1-0-0. i just don't get the slash things


Adam K - 2006-02-01

the slash means there is less time in between playing each chord/note.


DHrocks - 2006-03-31

dude adam man, i got to say you have the best tabs on this site


cheddarblister - 2006-06-12

im confused on the cd after it goes E [-------5-8-----7-10------- it goes up not down B [-1/0/0-x-x-0/0-x--x-00000
F#[-1/0/0-3-6-0/0-5--8-00000
B [-1/0/0-----0/0------00000


cheddarblister - 2006-06-12

woops that got screwed up


cheddarblister - 2006-06-12

i think instead of going 8 then 4/5 i think it goes 8 then 15/6 but im not the expert


LinkinDark423 - 2006-06-20

Did You Use A Book?


|)rink)v(tn|)ew - 2006-07-02

DAH!!!
weres "soldier's song"? i freakin love that song
...andbtw, amazing tab(again) you should tab soldier's song asap


|)rink)v(tn|)ew - 2006-07-02

oh crap...NM...i see it now


Adam K - 2006-07-03

No i didn't use a book. I tab all by ear.(I wish I had the book though)


joellaw44 - 2006-07-30

It's a really good tab, but I would use pull offs on both the verse riff
B 10p0-0-10p0-0... and the bridge part F# 12p0-0- 15p0-0 13p0-0 and 11p0-0


Adam K - 2006-08-05

They don't use pull offs cause you can hear the open string ringing while the other notes are being played.


demonhunter777 - 2006-09-19

Hey Adam, one small thing. At the end of the song instead of playing:
C#-14-14-14-14-14
G#--15-15-15-15-15
(It's played by either Acoustic or acoustic simulated Electric):
F#-3333333655555555 4X (slowly fades out.)
You did an amazing job!
J.T.


3rd Bassman - 2006-12-16

Awesome tab its perfect!

THE only thing i can tell is messed up is at the second interlude
instead of

Interlude
B [---0/0---0/0---0/0---0/0---0------0/0---0/0---0/0---0/0-----]
F#[-3-0/0-3-0/0-3-0/0-3-0/0-5/0/5--3-0/0-3-0/0-3-0/0-5-0/0-5-1-]
B [---0/0---0/0---0/0---0/0---0------0/0---0/0---0/0---0/0-----]

it shoudld be

*=pinch harmonic
Interlude
B [---0/0---0/0---0/0---0/0---0------0/0---0/0---0/0---0/0------]
F#[-3-0/0-3-0/0-3-0/0-3-0/0-5/0/5--3-0/0-3-0/0-3-0/0-5-0/0-5-1*-]
B [---0/0---0/0---0/0---0/0---0------0/0---0/0---0/0---0/0------]

so the last G should be a pinch.

Great Tab MAN!


iced slurpee - 2007-08-22

GOOD JOB !! THATS A FREAKIN HARD TAB TO LEARN!!! U ROCK


Add a comment/correction

Complimentary Christian Ringtones
Dadamobile and CGR have teamed up to bring your favorite Christian artists right to your phone. Sign up today and get 10 complementary ringtones!
Tab Country
Did you know CGR has a sister site w/ country guitar tabs? Well we do! Its called Tab Country. It has a great archive with a lot of country tabs.
Rockin Tabs
Are you looking for a site that has rock guitar tabs? Then Rockintabs.com is the place for you. It is a budding site with many rock guitar tabs. Submit your tab today.
Tab Gallery
Tab Gallery has a compilation of christian, rock, and country tabs all in one place. Come visit us.