Guitar Tabs
song title    band name

Join Us Today!

Don't strum alone...
be a part of the largest online Christian music community. Browse thousands of guitar tabs and chat w/ musicians like yourself.


It's Free!

This tab has not yet been rated for accuracy.Sorry, but you must be logged in to rate this tab.
Click here to log-in, or you can click here to register.
(Registration is free)

All songs owned by corresponding publishing company. If you make copies of any song on this website, be sure to report your usage to CCLI.
Submitted by: gloryforGod

No Tomorrow by Planet Shakers
Album Evermore

I tabbed this while I was listening to the song.. this is not taken from
any music books nor any websites, so, I’m kinda unsure bout some 
of these tabs…plz do some corrections if this is wrong…haha,dun 
forget to write the correction in here too..coz I wanna play it too!
So here goes..
----------------------------------------------------------------------------
Legends
x --muted string
h —hammer-on
Tuning
Normal tuning..EADGBE
----------------------------------------------------------------------------

Intro
E-------------------------------------------------------
B-------------------------------------------------------
G-----6s8-8-88-----6s8-8-88---66x66-6s8s6-44------------
D-----xxx-x-xx-----xxx-x-xx---xxxxx-xxxxx-xx------------   }play 3x
A-----4s6-6-66-----4s6-6-66---44x44-4s6s4-22------------
E-------------------------------------------------------

There..i’m unsure bout this part (verse).. so, watch out. :-p

Verse (all the verses)
E------------------------------------------------------------------
B------------------------------------------------------------------
G------4------4-------4--------3h4----4-----4-----4-----4----------    
D------------------------------------------------------------------
A---22-----22------22------22------22----22----22----22------------
E------------------------------------------------------------------

E----------------------------------------------------------------
B----------------------------------------------------------------
G--------0------------0------------------------------------------      
D---6-----6-----6----------------2------2-----2------1h2---------
A----------------------------------------------------------------
E-44--44-----44----44----6-----00-----00----00----00-------------

Pre-chorus
G#m Bm7 E C#m7 x2 ( sry ppl,hav to get this strummin patterns by yourself)

Chorus
Bm7 G#m C#m7 E  x2 (err..sry..this too)

Bridge
Bm7 for the whole bridge

-------------------------------------------------------------------------------

Comments about this tab

No comments/corrections found. Add your own

Complimentary Christian Ringtones
Dadamobile and CGR have teamed up to bring your favorite Christian artists right to your phone. Sign up today and get 10 complementary ringtones!
Tab Country
Did you know CGR has a sister site w/ country guitar tabs? Well we do! Its called Tab Country. It has a great archive with a lot of country tabs.
Rockin Tabs
Are you looking for a site that has rock guitar tabs? Then Rockintabs.com is the place for you. It is a budding site with many rock guitar tabs. Submit your tab today.
Tab Gallery
Tab Gallery has a compilation of christian, rock, and country tabs all in one place. Come visit us.