Guitar Tabs
song title    band name

Join Us Today!

Don't strum alone...
be a part of the largest online Christian music community. Browse thousands of guitar tabs and chat w/ musicians like yourself.


It's Free!

This tab has been rated a 5.00 out of 5 for accuracy. (1 vote)Sorry, but you must be logged in to rate this tab.
Click here to log-in, or you can click here to register.
(Registration is free)

All songs owned by corresponding publishing company. If you make copies of any song on this website, be sure to report your usage to CCLI.
Submitted by: Kanna

Until You're Reformed
Chevelle

By: Andrew     Tuning: B F# B E G# C#
aosgtr@yahoo.com
~*Stumming Patturns Not Shown*~
Revisions and strum patterns added by Tim N.
thefirestillburns@hotmail.com

.= Palm Mute

Intro
|-----------
|-----------
|-----------
|--------5--
|----5-4----
|--4--------
Harmonics...

Verse:
|-------------------------------------------------------
|-------------------------------------------------------
|-------------------------------------------------------
|-------------------------------------------------------
|--55-55-55-55-555--77-77-77-77-777--99-99-99-99-999--x2
|--00-00-00-00-000--00-00-00-00-000--00-00-00-00-000----

Chorus part 1:
|-----------------
|-----------------
|--11-11-11-11-11-11-11--6/7--------
|------------------------------x4---
|--9--9--9--9--9--9--9---4/5--------
|--0--0--0--0--0--0--0---0/0--------

Chorus part 2:
|--------------------------------------
|--------------------------------------
|--------11-11-11-6-6-6-9-9-9-7-7-7----
|------------------------------------x4
|--------9--9--9--4-4-4-7-7-7-5-5-5----
|--0-0-0-0--0--0--0-0-0-0-0-0-0-0-0----

|----------------
|----------------
|----------------
|--------5-------
|----5-4---------
|--4--------0-0-0
Harmonics...   . . .

Verse:
|-------------------------------------------------------
|-------------------------------------------------------
|-------------------------------------------------------
|-------------------------------------------------------
|--55-55-55-55-555--77-77-77-77-777--99-99-99-99-999--x2
|--00-00-00-00-000--00-00-00-00-000--00-00-00-00-000----

Chorus part 1

Chorus part 2

Bridge:
|-----------------------------------------
|-----------------------------------------
|--12-12-12/11-11-11-11-11-11-11-11-------
|------------------------------------x4---
|--10-10-10/9--9--9--9--9--9--9--9--------
|-----------------------------------------

Chorus part 1:only 2 times

Bridge 2:
|-----------------------------------------------------
|-----------------------------------------------------
|--11-11-11-11-11-11-11-11/12-12-12-12-12-12-12-12----
|---------------------------------------------------x2
|--9--9--9--9--9--9--9--9--10-10-10-10-10-10-10-10----
|-----------------------------------------------------

Chorus part 1:only 2 times
Chorus part 2:only 1 time


Comments about this tab

12gauge - 2006-01-14

everything I see is good. But there is one thing missing. I dont know if this tab is for the live song or not ( I have not heard the original, only the one on the live CD ) but there is a little "solo" I guess you could call it that Pete does somewhere around the bridge area. It is with these chords:

this part a number of times (this is played while Pete is screaming):
E----11----11-11-11---11-11-11---11-11-11\6
B----x-----x--x--x----x--x--x----x--x--x-\x--------( chorus riff )
F#---9-----9--9--9----9--9--9----9--9--9-\4
B----0-----0--0--0----0--0--0----0--0--0-\0

then here is the solo thingy:
E----11-11-11-11-11-12-12-12-12-12-14-14-14-14-14-14-14-12-12-12-14-14-14-14-14
B----x--x--x--x--x--x--x--x--x--x--x--x--x--x--x--x--x--x--x--x--x--x--x--x--x-
F#---9--9--9--9--9--10-10-10-10-10-12-12-12-12-12-12-12-10-10-10-12-12-12-12-12
B------------------------------------------------------------------------------


E----14-14-14-14-12-12
B----x--x--x--x--x--x- Then back to chorus riff
F#---12-12-12-12-10-10
B---------------------


12gauge - 2006-01-14

everything I see is good. But there is one thing missing. I dont know if this tab is for the live song or not ( I have not heard the original, only the one on the live CD ) but there is a little "solo" I guess you could call it that Pete does somewhere around the bridge area. It is with these chords:

this part a number of times (this is played while Pete is screaming):
E----11----11-11-11---11-11-11---11-11-11\6
B----x-----x--x--x----x--x--x----x--x--x-\x--------( chorus riff )
F#---9-----9--9--9----9--9--9----9--9--9-\4
B----0-----0--0--0----0--0--0----0--0--0-\0

then here is the solo thingy:
E----11-11-11-11-11-12-12-12-12-12-14-14-14-14-14-14-14-12-12-12-14-14-14-
B----x--x--x--x--x--x--x--x--x--x--x--x--x--x--x--x--x--x--x--x--x--x--x--
F#---9--9--9--9--9--10-10-10-10-10-12-12-12-12-12-12-12-10-10-10-12-12-12-
B-------------------------------------------------------------------------


E----14-14-14-14-12-12
B----x--x--x--x--x--x- Then back to chorus riff
F#---12-12-12-12-10-10
B---------------------


Add a comment/correction

Complimentary Christian Ringtones
Dadamobile and CGR have teamed up to bring your favorite Christian artists right to your phone. Sign up today and get 10 complementary ringtones!
Tab Country
Did you know CGR has a sister site w/ country guitar tabs? Well we do! Its called Tab Country. It has a great archive with a lot of country tabs.
Rockin Tabs
Are you looking for a site that has rock guitar tabs? Then Rockintabs.com is the place for you. It is a budding site with many rock guitar tabs. Submit your tab today.
Tab Gallery
Tab Gallery has a compilation of christian, rock, and country tabs all in one place. Come visit us.