Guitar Tabs
song title    band name

Join Us Today!

Don't strum alone...
be a part of the largest online Christian music community. Browse thousands of guitar tabs and chat w/ musicians like yourself.


It's Free!

This tab has been rated a 2.50 out of 5 for accuracy. (2 votes)Sorry, but you must be logged in to rate this tab.
Click here to log-in, or you can click here to register.
(Registration is free)

All songs owned by corresponding publishing company. If you make copies of any song on this website, be sure to report your usage to CCLI.
Submitted by: Cymustang12

Softer to me:

intro(lead):  (4x) guitar1
E-------------------------------------------------------------------------
B-------------------------------------------------------------------------
G----5-5-6-5---5-5-6-5---5--------5---------------------7-----------------
D--------------------------6-6-6----6-6-6---6-6-7-6-6-6------5-5-6-5-5-5-6
A-------------------------------------------------------------------------
E-------------------------------------------------------------------------

intro(rhythm): guitar2 (after lead is played once hit the D-3)
E--------------------                             A-3
B--------------------                             E-1
G--------6-------8---
D----3---6---6---8---
A----3---4---6---6---
E----1-------4-------
its not that hard to follow along with the power chords. i dont want to
tab every time you change, its not hard to follow along when you hit the 
power chords and when you switch chords.


Verse:

E------------------------------            *= beginning of verse, then u go to               
B------------------------------               playing the rhythm,           
G-------------(6-6-6)------8---
D----*(3-3)---(6-6-6)--6---8---
A-----(3-3)---(4-4-4)--6---6---
E-----(1-3)------------4-------



Chorus(bass mostly, but u can transition this into the chorus):

E---------------------------------------------------------------------
B---------------------------------------------------------------------
G----------------------6-------6--------------------------8-----8-----
D-----3-----3--------6-------6-----------6-----6--------8-----8-------
A---3-----3--------4-------4-----4-----6-----6--------6-----6-----6---
E-1-----1-----1----------------------4-----4-----4--------------------

play 1st chorus through 2x
play second through 6x

Post Chorus:

E|---------------------------------------------------------------------
B|-99999999--11-11-11-11-11-11-11-11--13-13-13-13-13-13-13-13--16------
G|---------------------------------------------------------------12-12-
D|---------------------------------------------------------------------
A|---------------------------------------------------------------------
E|---------------------------------------------------------------------
              
E|---------------------------------------------------------------------
B|---------------------------------------------------------------------
G|-13-12-12-12-13------------------------------------------------------
D|---------------------------------------------------------------------
A|---------------------------------------------------------------------
E|---------------------------------------------------------------------



Bridge: repeat stuff from the beginning only change the tempo. trust me its not that hard!



I'm sure its not straight from relientk, but me and my band play it
and it sounds great, im sure you'll like this tab, becqause it has 
mostly everything in the song

peace.love.empathy.cy

Comments about this tab

No comments/corrections found. Add your own

Complimentary Christian Ringtones
Dadamobile and CGR have teamed up to bring your favorite Christian artists right to your phone. Sign up today and get 10 complementary ringtones!
Tab Country
Did you know CGR has a sister site w/ country guitar tabs? Well we do! Its called Tab Country. It has a great archive with a lot of country tabs.
Rockin Tabs
Are you looking for a site that has rock guitar tabs? Then Rockintabs.com is the place for you. It is a budding site with many rock guitar tabs. Submit your tab today.
Tab Gallery
Tab Gallery has a compilation of christian, rock, and country tabs all in one place. Come visit us.