Guitar Tabs
song title    band name

Join Us Today!

Don't strum alone...
be a part of the largest online Christian music community. Browse thousands of guitar tabs and chat w/ musicians like yourself.


It's Free!

This tab has been rated a 4.13 out of 5 for accuracy. (8 votes)Sorry, but you must be logged in to rate this tab.
Click here to log-in, or you can click here to register.
(Registration is free)

All songs owned by corresponding publishing company. If you make copies of any song on this website, be sure to report your usage to CCLI.
Submitted by: CHRiSTculture

The solo was tough. I hope it was good enough.

Intro

e|-----------------------------------------------------------------------|
b|-----------------------------------------------------------------------|
g|------2-1-1-1-1h2------2-1-1-1-1h2------2-1-1-1-1h2-----2-1-1-1-1h2----| [x2]
D|------------------------------------0-0-------------0-0----------------|
A|--0-0-------------0-0--------------------------------------------------|
E|-----------------------------------------------------------------------|

Verse

e|-----------------------------------------------------------------------|
b|-----------------------------------------------------------------------|
g|------2-1-1-1-1h2------2-1-1-1-1h2------2-1-1-1-1h2-----2-1-1-1-1h2----| [x2]
D|------------------------------------0-0-------------0-0----------------|
A|--0-0-------------0-0--------------------------------------------------|
E|-----------------------------------------------------------------------|

1. With ... inside  With ... desires                  And ... dreamt
   With ... to be   With ... bring                    And ... compares 

Pre-Chorus

e|--------------------|
b|--------------------|
g|--6--4-6--4-6--4-6--|
D|--------------------| [x2]
A|--------------------|
E|--------------------|

1. You say ... of me
   I ... other way
Chorus

e|-------------------------------------------|
b|-------------------------------------------|
g|---------------777-11111111------77777777--|
D|--777777777777-777-11111111-9999-77777777--|
A|--777777777777-555--9-9-9-9-9999-55555555--|
E|--555555555555--------------7777-----------|

1. I ... in me  Who---a I ... know Want .. today 

e|--------------------------------------|
b|--------------------------------------|
g|----------------11-11-11-11------777--|
D|--777777777777--11-11-11-11--9-9-777--|
A|--777777777777---9--9--9--9--9-9-555--|
E|--555555555555---------------7-7------|

1. Cuz ... me ... World..take..World..away

Solo

e|-------------------------------------------------------------------------------------|
b|--------10-------10----10-------10/12b-10--------------------------------------------|
g|--11-11----11-11----11----10-10-----------11-----6-----6-----------8-----8-----8/11--|
D|---------------------------------------------7-7---7-7---7-7-7/9-9---9-9---9---------|
A|-------------------------------------------------------------------------------------|
E|-------------------------------------------------------------------------------------|

e|----------------------------------------------------------------------------------------------------|
b|--------10-------10----10-------10/12b-10-----------------------------------------------------------|
g|--11-11----11-11----11----10-10-----------11-----6-----6-----------8-------8---8-----8-------8---8--|
D|---------------------------------------------7-7---7-7---7-7-7/9-9---9-9-9---9---9-9---9-9-9---9----|
A|----------------------------------------------------------------------------------------------------|
E|----------------------------------------------------------------------------------------------------|

I trust you can plug in the rest of the lyrics. 
I tried my best to align the words to the note played at the same time.

Comments about this tab

Osraj-JTG - 2006-01-25


great tab!!! it's just the last part of d solo dsnt feel right..

I think it's like this
e|-------------------------------------------------------------|
b|-------------------------------------------------------------|
g|-6-----6-----------8-------8---8-----8-----8---8-----8-----8-|
D|---7-7---7-7-7/9-9---9-9-9---9---9-9---9-9---9---9-9---9-9---|
A|-------------------------------------------------------------|
E|-------------------------------------------------------------|

then straight chorus chord..


clewis - 2006-02-11

nice tab but well out on intro


Mingi_Jammer - 2006-11-21

Hey! The subs were awesome! The way i play the intro though is kind of different.

For me it is:
e|-----------------------------------------------------------------------|
B|-----------------------------------------------------------------------|
G|-----------------------------------------------------------------------| [x2]
D|------7p6-6-6-6h7-------7p6-6-6-6h7-------7p6-6-6-6h7-------7p6-6-6-6h7|
A|-------------------------------------5-5---------------5-5-------------|
E|-5-5---------------5-5-------------------------------------------------|

Well those are my tabs and if you have any questions or concerns just e-mail me at andg54@hotmail.com!
Rock On!


5isakoolnumber - 2007-03-21

i agree with the guy right above this comment. i play it that way and i like it alittle better.
so peace out V(the v is a corny peace sigh if your wonderin)


Add a comment/correction

Complimentary Christian Ringtones
Dadamobile and CGR have teamed up to bring your favorite Christian artists right to your phone. Sign up today and get 10 complementary ringtones!
Tab Country
Did you know CGR has a sister site w/ country guitar tabs? Well we do! Its called Tab Country. It has a great archive with a lot of country tabs.
Rockin Tabs
Are you looking for a site that has rock guitar tabs? Then Rockintabs.com is the place for you. It is a budding site with many rock guitar tabs. Submit your tab today.
Tab Gallery
Tab Gallery has a compilation of christian, rock, and country tabs all in one place. Come visit us.