Guitar Tabs
song title    band name

Join Us Today!

Don't strum alone...
be a part of the largest online Christian music community. Browse thousands of guitar tabs and chat w/ musicians like yourself.


It's Free!

This tab has been rated a 4.50 out of 5 for accuracy. (4 votes)Sorry, but you must be logged in to rate this tab.
Click here to log-in, or you can click here to register.
(Registration is free)

All songs owned by corresponding publishing company. If you make copies of any song on this website, be sure to report your usage to CCLI.
Submitted by: lance.kresky

Drop B tuning
I Didn't include the bridge, i will put it on sometime.

intro-2x
----------------------      | -------------
---------------10----- |-2x | ------------- |-1x
-----11-----------8---      | -6-6-6-6-6-6-
-1-0---0-1/9-0------7-      | -6-6-6-6-6-6-
-1-0-9-0-1/9-0--------      | -4-4-4-4-4-4-
-1-0---0-1/9-0--------      | -------------

Verse-1x
-----------------------------------------------------------------------
-----------------------------------------------------------------------
-----------------------------------------------------------------6-6-6-
-0-0-0-0-0-0-0-0-6-6-6-6-6-6-6-6-7-7-7-7-7-7-7-7-6-6-6-6-6-6-6-6-6-6-6-
-0-0-0-0-0-0-0-0-6-6-6-6-6-6-6-6-7-7-7-7-7-7-7-7-6-6-6-6-6-6-6-6-4-4-4-
-0-0-0-0-0-0-0-0-6-6-6-6-6-6-6-6-7-7-7-7-7-7-7-7-6-6-6-6-6-6-6-6-------
  p.m.----------------------------------------------------------|

Verse part II-3x
-----------------------------------------------------------------
-----------------------------------------------------------------
-----------------------------------------------------------------
-0-0-0-0-0-0-0-0-6-6-6-6-6-6-6-6-7-7-7-7-7-7-7-7-6-6-6-6-6-6-6-6-
-0-0-0-0-0-0-0-0-6-6-6-6-6-6-6-6-7-7-7-7-7-7-7-7-6-6-6-6-6-6-6-6-
-0-0-0-0-0-0-0-0-6-6-6-6-6-6-6-6-7-7-7-7-7-7-7-7-6-6-6-6-6-6-6-6-
p.m.------------------------------------------------------------|

Verse part III-1x
      ---------------------------------
GTR-1 -3-6-3-6-3-4-3-4-3-5-3-5-3-4-3-4- |-2x
      ---------------------------------
      ---------------------------------
      ---------------------------------
      ---------------------------------

      -----------------------------------------------------------------
GTR-2 ----------------------------------------------------------------- |-2x
      -----------------------------------------------------------------
      -0-0-0-0-0-0-0-0-6-6-6-6-6-6-6-6-7-7-7-7-7-7-7-7-1-1-1-1-1-1-1-1-
      -0-0-0-0-0-0-0-0-6-6-6-6-6-6-6-6-7-7-7-7-7-7-7-7-1-1-1-1-1-1-1-1-
      -0-0-0-0-0-0-0-0-6-6-6-6-6-6-6-6-7-7-7-7-7-7-7-7-1-1-1-1-1-1-1-1-

Chorus-1x
---------------------------------------------------------------------------------
---------------------------------------------------------------------------------
---------------------------------------------------------------------------------
-5-5-5-5-5-5-5-5-1-1-1-1-3-3-3-3-4-4-4-4-4-4-4-4-3-3-3-3-3-3-3-3-5-5-5-5-5-5-5-5-
-5-5-5-5-5-5-5-5-1-1-1-1-3-3-3-3-4-4-4-4-4-4-4-4-3-3-3-3-3-3-3-3-5-5-5-5-5-5-5-5-
-5-5-5-5-5-5-5-5-1-1-1-1-3-3-3-3-4-4-4-4-4-4-4-4-3-3-3-3-3-3-3-3-5-5-5-5-5-5-5-5-

-----------------------------------------------------------------------------------------
-----------------------------------------------------------------------------------------
-----------------------------------------------------------------------------------------
-1-1-1-1-3-3-3-3-4-4-4-4-4-4-4-4-3-3-3-3-3-3-0-0-0-4-4-4-4-4-4-4-4-3-3-3-3-3-3-3-3-0-0-0-
-1-1-1-1-3-3-3-3-4-4-4-4-4-4-4-4-3-3-3-3-3-3-0-0-0-4-4-4-4-4-4-4-4-3-3-3-3-3-3-3-3-0-0-0-
-1-1-1-1-3-3-3-3-4-4-4-4-4-4-4-4-3-3-3-3-3-3-0-0-0-4-4-4-4-4-4-4-4-3-3-3-3-3-3-3-3-0-0-0-
                                             x x x                                 x x x

Fill-1x
--------
-10-----
----8---
------7-
--------
--------

Intro-1x

Verse-1x

Verse part II-1x

Verse part II-2x

Chorus-1x

Bridge

Comments about this tab

phonyletters - 2005-12-07

this tab is very accurate. great job on this! you should do more DH tabs


Jimbo12 - 2005-12-08

the intro goes like this....

~/~ = legato slide
* = palm mute

G#|-------------------------10-------|
E |----------------------------8-----|
B |-1--0----0---1~/~9-0--0-------7-0-| 3 times
F#|-1--0--6-0---1~/~9-0--------------|
B |-1--0----0---1~/~9-0--------------|
*

E |-------------------13-13-13--13-13-13-13-|
B |-1--0----0--1~/~9--x--x--x---x--x--x--x--|
F#|-1--0--6-0--1~/~9--11-11-11--11-11-11-11-|
B |-1--0----0--1~/~9------------------------|


Jimbo12 - 2005-12-08

Sorry, that first note after the last power chord is palm muted.


chickensallad64 - 2005-12-13

da chourus is wrong!!!it goes

-
-
-
-
-7777777788888888
-5555555555555555and hen continue from what you tabed!!!!!


Adam K - 2005-12-14

I tabbed this song and addaed a whole lot more.
Like both guitars and the solo.
there's a 3rd guitar in the bridge.
I hope it comes in soon.


Jimbo12 - 2005-12-18

Yeah, if you listen to the solo section with headphones you can hear the solo in the right side, the rhythm part in both sides, and this little other part in the left speaker.


Add a comment/correction

Complimentary Christian Ringtones
Dadamobile and CGR have teamed up to bring your favorite Christian artists right to your phone. Sign up today and get 10 complementary ringtones!
Tab Country
Did you know CGR has a sister site w/ country guitar tabs? Well we do! Its called Tab Country. It has a great archive with a lot of country tabs.
Rockin Tabs
Are you looking for a site that has rock guitar tabs? Then Rockintabs.com is the place for you. It is a budding site with many rock guitar tabs. Submit your tab today.
Tab Gallery
Tab Gallery has a compilation of christian, rock, and country tabs all in one place. Come visit us.