Guitar Tabs
song title    band name

Join Us Today!

Don't strum alone...
be a part of the largest online Christian music community. Browse thousands of guitar tabs and chat w/ musicians like yourself.


It's Free!

This tab has not yet been rated for accuracy.Sorry, but you must be logged in to rate this tab.
Click here to log-in, or you can click here to register.
(Registration is free)

All songs owned by corresponding publishing company. If you make copies of any song on this website, be sure to report your usage to CCLI.
Submitted by: thibeaz

Voice of Sodom
by ApologetiX

Transcribed by Zach Thibeau (masterthibeau@hotmail.com)
***** TUNE TO E FLAT FOR THIS SONG *****
Otherwise the chorus chords will not work.

Key:	H - Hammer-On	P - Pull-Off
 	^F - Full Bend	^H - Half Bend 
	/ - Slide up	\ - Slide down
	~ - Vibrato

Use a clean standard tone with chorus effect for chord richness and
make good use of neck and bridge pickup switching. A few leads use the
bridge pickup with distortion. I have loved this song ever since it 
was release and since none of the tabs I found were exactly accurate,
I decided to give it a go. 

Please mail me if you find anything that needs changing.  Thanks.
 
Intro
***** USE NECK PICKUP *****
e------|--|-----------|--|----------|--|--P-------|--|---P----P---------|
B------|--|-----------|--|----------|--|-8-5------|--|-10-8--8-5--------|
G-7/9~-|--|-----7-----|--|-----7----|--|-----7/9~-|--|-----------7--7/9-|
D------|--|-7/9---9~--|--|-7/9---9~-|--|----------|--|------------------|
A------|--|-----------|--|----------|--|----------|--|------------------|
E------|--|-----------|--|----------|--|----------|--|------------------|

e---P---------|
B-12-10~------|
G-------------|
D-------------|
A---------7\--|
E-------------|

Verse
The rhythm played underneath the verse is simply an easy A7 arpeggio
(Once each per line - 8x total) 

 |---------PM----------|
e------------------------------|
B-----0-0----------0--0--------| 
G---------2-2--------2---------|
D-2-2----------2-2-------------|
A------------------------------|
E------------------------------|
(Conversely it can be played even easier if you wish - I play this)
 |---------PM-----------|
e------------------------------|
B------------------------------| 
G------------------------------|
D-----9-9-7-7------9-7-9-------|
A-7-7----------7-7-------------|
E------------------------------|

Chorus
(eh, close enough for government work - arpeggiate as you like)
Play 2x
***** Switch to BRIDGE PICKUP *****
            Dsus4
  G       D   | D   D       C(add9)
e-3-3-----2---3-2---2-0-----0-0------------------------|
B-3--3----3---3-3---3--3----3--3-----------------------|
G-0---0---2---2-2---2---2---0---0----------------------|
D-0-------0---0-0---0-------2--------------------------|
A-X-------------------------3--------------------------|
E-3----------------------------------------------------|

G		  D  Dsus4 D
D				      C(add9)
G		  D  Dsus4 D
D		  C(add9)

***** Switch to NECK PICKUP *****
                                                 P
e------|---|---------------|---|----------|---|-10-7-----|---|-------|
B------|---|---------------|---|----------|---|------10--|---|-------|
G-7-9~-|---|--H--7---P-H---|---|---7-9-7~-|---|----------|---|-------|
D------|---|-7-9----9-7-9--|---|-/9-------|---|----------|---|--7\---|
A------|---|---------------|---|----------|---|----------|---|-------|
E------|---|---------------|---|----------|---|----------|---|-------|


Repeat Verse



(Distorted fill near end of verse)
***** Switch to BRIDGE PICKUP *****


e--------------------------------12----|
B--------------------------------------|
G-----------12-12^H------12-14^F-------|
D-----------12-12^H--/14---------------|
A--------------------------------------|
E--------------------------------------|

Repeat Chorus


Bridge:
(Simple open string G chord arpeggio - This rings better)
|----------PM--------------|
e-0-0-----------0--0-------------------|
B-----3-3--------3----3---3------------|	
G---------0-0-----0----0---0-----------|	
D--------------------------------------|
A--------------------------------------|
E--------------------------------------|

(Conversely it can be played even easier if you wish)
 |---------PM-------------------|
e--------------------------------------|
B--------------------------------------|
G-9-9--7-7--0-0--9-7-0-9--7-0--7-0-----| 
D--------------------------------------|
A--------------------------------------|
E--------------------------------------|

Interlude
(May be played as what's comfortable to you but these are the notes sounded)
   P		           P H P                    |------DISTORTION------|
e-10-7------||---P-----||-5-3-5-3---3--P-----H---||------------------------|
B------10~~-||-12-10~~-||---------5---5-3---3-5--||-----8---8-10-10^F------|
G-----------||---------||-----------------4------||/9-9---9-----------9-9~-|
D-----------||---------||------------------------||------------------------|
A-----------||---------||------------------------||------------------------|
E-----------||---------||------------------------||------------------------|

Repeat Verse:
(The seagull sounds may be a synth effect but can be created by scraping the pick
against the higher strings with a delay effect. A metal pick works even better, i.e. a dime)


Repeat Chorus: (2X)

Outro: 
(Perhaps played by two guitars, but very easily done with one.)
(The first time through play the first bar, and 2nd time play the 2nd bar)
	                   |--1st bar--|   |---------2nd bar--------|
e-7--7~-----7--7~----7--7~----||-7------------||------------------H--P-----|
B--10--8-8~--10--8-8~-10--8-8~||--10-8~-8-7---||--H-8-H-8-H-8--H-8-10-8-P--|
G-------7---------7--------7--||-----------7~-||-7-9-7-9-7-9--7-9------9-7-|
D-----------------------------||--------------||---------------------------|
A-----------------------------||--------------||---------------------------|
E-----------------------------||--------------||---------------------------|

Comments about this tab

No comments/corrections found. Add your own

Complimentary Christian Ringtones
Dadamobile and CGR have teamed up to bring your favorite Christian artists right to your phone. Sign up today and get 10 complementary ringtones!
Tab Country
Did you know CGR has a sister site w/ country guitar tabs? Well we do! Its called Tab Country. It has a great archive with a lot of country tabs.
Rockin Tabs
Are you looking for a site that has rock guitar tabs? Then Rockintabs.com is the place for you. It is a budding site with many rock guitar tabs. Submit your tab today.
Tab Gallery
Tab Gallery has a compilation of christian, rock, and country tabs all in one place. Come visit us.