Guitar Tabs
song title    band name

Join Us Today!

Don't strum alone...
be a part of the largest online Christian music community. Browse thousands of guitar tabs and chat w/ musicians like yourself.


It's Free!

This tab has been rated a 5.00 out of 5 for accuracy. (1 vote)Sorry, but you must be logged in to rate this tab.
Click here to log-in, or you can click here to register.
(Registration is free)

All songs owned by corresponding publishing company. If you make copies of any song on this website, be sure to report your usage to CCLI.
Submitted by: jsoccer

Title: In The Blink Of An Eye
Album: Undone
Artist: MercyMe


ok heres the tab for the song. there are some things for the electric guitar 
so here they are.
accostic and electric-standard tuning.
chords: D x00232 A x02220 Em 022000 G 320003
G2 320033 Bm x24432

tab legend:
/=slide
b=bend
x=mute
pm=palm mute
r=ring
music legend:
|=one measure
:||=repeat to where tp this ||: only repeat once. 
||=end song

4\4 time

intro:

 |D       |A       |Em       |G        |
 |        |        |         |         |
e---------|--------|0------0-|3r-------|
b--3r-----|--------|---------|---------|
g--------4|2r------|---------|---------|
d---------|--------|---------|---------|
a---------|--------|---------|---------|
e---------|--------|---------|---------|

 ||:G      |A      |Bm     |       :||
d||:5-x-x-x|7-x-x-x|9-x-9--|-----99:||
a||:5-x-x-x|7-x-x-x|9-x-9--|-----99:||
e||:3-x-x-x|5-x-x-x|7-x-7--|-----77:||

verse 1:
 ||:G      |A      |Bm     |       :||
g||:0------|2------|4------|-------:||
d||:-------|-------|-------|9-9-9-9:||
a||:-------|-------|-------|9-9-9-9:||
e||:-------|-------|-------|7-7-7-7:||

 |G      |A      |Bm     |       |
g|0------|2------|4------|-------|
d|-------|-------|-------|-------|
a|-------|-------|-------|-------|
e|-------|-------|-------|-------|
 
 |G      |A      |D      |       |
g|0------|2------|7------|-------|
d|-------|-------|7------|-------|
a|-------|-------|5------|-------|
e|-------|-------|-------|-------|     
                    __________________  _______________       
verse 2:           |1,2,3              |4
 ||:G      |A      |Bm             :|| |Em     |       |
g||:-------|-------|-------|-------:|| |-------|-------|
d||:5-x-x-x|7-x-x-x|9-x-x-x|x-x-x-x:|| |2------|2-2-2-2|
a||:5-x-x-x|7-x-x-x|9-x-x-x|x-x-x-x:|| |2------|2-2-2-2|
e||:3-x-x-x|5-x-x-x|7-x-x-x|x-x-x-x:|| |0------|0-0-0-0|

chorus:
 |D      |A      |Em
g|7--7777|2--2222|-------|-------|
d|7--7777|2--2222|2222222|5555555|
a|5--5555|0--0000|2222222|5555555|
e|-------|-------|0000000|3333333|

 |D      |A      |Em     |G      |Em     |G      |
g|7--7777|2--2222|-------|-------|-------|-------|
d|7--7777|2--2222|2222222|5555555|--2-2-2|5-5-5-x|
a|5--5555|0--0000|2222222|5555555|--2-2-2|5-5-5-x|
e|-------|-------|0000000|3333333|--0-0-0|3-3-3-x|

post-chorus:
 |G      |A      |Bm     |       |       
d|5-5-5-5|7-7-7-7|9-x-9--|----9-9|
a|5-5-5-5|7-7-7-7|9-x-9--|----9-9|
e|3-3-3-3|5-5-5-5|7-x-7--|----7-7|
pm----------------

 |G      |A      |Bm     |       |
d|5-x-x-x|7-x-x-x|x-x-x-x|x-x-9-9|
a|5-x-x-x|7-x-x-x|x-x-x-x|x-x-9-9|
e|3-x-x-x|5-x-x-x|x-x-x-x|x-x-7-7|
                    _________________   ________________
verse 3:           |1,2,3              |4
 ||:G      |A      |Bm     |       :|| |Em     |       |
e||:3-3-3-3|5-5-5-5|7-7-7-7|7--7-7-:||d|2------|-------|
b||:-3-3-3-|-5-5-5-|-7-7-7-|--7---7:||a|2------|-------|
                                      e|0------|-------|

chorus:
 
 |D      |A      |Em     |G      |
g|7--7777|2--2222|-------|-------|
d|7--7777|2--2222|2222222|5555555|
a|5--5555|0--0000|2222222|5555555|
e|-------|-------|0000000|3333333|

 |D      |A      |Em     |G      |Em     |G      |
g|7--7777|2--2222|-------|-------|-------|-------|
d|7--7777|2--2222|2222222|5555555|2-2-2-2|5-5-5-5|
a|5--5555|0--0000|2222222|5555555|2-2-2-2|5-5-5-5|
e|-------|-------|0000000|3333333|0-0-0-0|3-3-3-3|

brigde
 |G      |       |       |       |       |
e|-------|3------|-------|3------|---3-3-|
b|-------|3------|-------|3------|----3-3|
g|-------|0------|-------|0------|-------|
d|-------|0------|-------|0------|-------|
a|-------|2------|-------|2------|-------|
e|-------|3------|-------|3------|-------|

 |G      |A      |Bm     |       |G      |Em     |
d|5-x-x-x|7-x-x-x|9-x-x-x|9-x-x-x|5-x-x-x|2-2-2-2|
a|5-x-x-x|7-x-x-x|9-x-x-x|9-x-x-x|5-x-x-x|2-2-2-2|
e|3-x-x-x|5-x-x-x|7-x-x-x|7-x-x-x|3-x-x-x|0-0-0-0|

chorus:
 |D      |A      |Em     |G      |D      |A      |Em     |G
g|7--7777|2--2222|2222222|-------|7--7777|2--2222|-------|----xxx|
d|7--7777|2--2222|2222222|5555555|7--7777|2--2222|2222222|5555xxx|
a|5--5555|0--0000|2222222|5555555|5--5555|0--0000|2222222|5555xxx|
e|-------|-------|0000000|3333333|-------|-------|0000000|3333xxx|

 |D      |A      |Em     |G      |D      |A      |Em     |G      |
g|7--7777|2--2222|-------|-----xx|7--7777|2--2222|-------|-------|
d|7--7777|2--2222|2222222|55555xx|7--7777|2--2222|2222222|5555555|
a|5--5555|0--0000|2222222|55555xx|5--5555|0--0000|2222222|5555555|
e|-------|-------|0000000|33333xx|-------|-------|0000000|3333333|

 |Em     |G      |       |       |D ||
g|-------|-------|-------|7/10---|7h||
d|2-2-2-2|5------|-------|-------|7h||
a|2-2-2-2|5------|-------|-------|5h||
e|0-0-0-0|3------|-------|-------|--||

thats all,
   your brother in Christ

Comments about this tab

serafim90 - 2005-12-07

hey this is cool, it looks complicated but i'll try it. i'll get back to you on it once i've really tried it, i can tell you worked hard on it and it should be real cool. thanks for posting it, i love this song!!!


jsoccer - 2005-12-29

sry. i made a mistake. on the last part where there is the slide it should read 7/11 not 7/10. sry :( :(


underoathrocks - 2007-01-25

Sweet, We really need There's a Reason!
I love that song, I'm wanting to use that song in Chapel at my school!


Add a comment/correction

Complimentary Christian Ringtones
Dadamobile and CGR have teamed up to bring your favorite Christian artists right to your phone. Sign up today and get 10 complementary ringtones!
Tab Country
Did you know CGR has a sister site w/ country guitar tabs? Well we do! Its called Tab Country. It has a great archive with a lot of country tabs.
Rockin Tabs
Are you looking for a site that has rock guitar tabs? Then Rockintabs.com is the place for you. It is a budding site with many rock guitar tabs. Submit your tab today.
Tab Gallery
Tab Gallery has a compilation of christian, rock, and country tabs all in one place. Come visit us.