Guitar Tabs
song title    band name

Join Us Today!

Don't strum alone...
be a part of the largest online Christian music community. Browse thousands of guitar tabs and chat w/ musicians like yourself.


It's Free!

This tab has been rated a 4.09 out of 5 for accuracy. (11 votes)Sorry, but you must be logged in to rate this tab.
Click here to log-in, or you can click here to register.
(Registration is free)

All songs owned by corresponding publishing company. If you make copies of any song on this website, be sure to report your usage to CCLI.
Submitted by: Gawdz_Gipht

I LOVE THIS SONG! I tried to figure out the riffs in this song,
I think they're pretty close.

Bass intro:

E|----------------------------------------------------
B|----------------------------------------------------
G|----------------------------------------------------
D|----------------------------------------------------
A|999-777-44-555-444-000------------------------------
E|----------------------------------------------------

Guitar riff for verse: 
  F#5                 F#5
E|----------------------------------------------------
B|----------------------------------------------------
G|----------------------------------------------------
D|------------11-11-11---------9----------------------
A|9-9-9-9-9-9----------9-9-9-9---12-11----------------
E|----------------------------------------------------

Pre-chorus:
  F#5-D5
E|-------------|
B|--10---------|
G|-----11------| x4
D|11-----------|
A|-------------|
E|-------------|

Chorus:
A-E-F#m-D x2

Verse, Pre-chorus, Chorus

Bridge:
Bass:
E|----------------------------------------------------
B|----------------------------------------------------
G|----------------------------------------------------
D|----------------------------------------------------
A|0-00-0h2-222-------5-555----------------------------
E|-------------2-222----------------------------------

Guitar riff following bass:
  A5    Bm5    F#m   D5
E|-----------------------|
B|---10-----------10-----|  
G|-----11-----------11---|    x2, then jump into chorus
D|11-----------11--------|

A|-----------------------
E|-----------------------

Comments about this tab

megabassest - 2005-12-07

hey bro this tab is preety acurite it sounds great .. but on the cd u have to listen closely


davidfong22 - 2005-12-09

hmmm...i tried this....seems kinda accurate..dunno why it was only rated 1.00


Godlives0291 - 2005-12-28

THIS IS GREAT! Man, I checked all the others, and the only part of them I could understand was the chords, and the bass intro! Great Job, I finally got the riff for this AWESOME SONG! Do ur thing!

Jesus Rocks, UNITED FOREVER!


JESUSFReaK301 - 2006-03-19

For the riff at the beginning, try this
For thebends u just keep the bend and just keep hitting the string if you know what i mean...

G-11b-11b-11b-11b-11b-777-66

i'm pretty sure this is right


Jeimz - 2006-07-23

Dude the intro'll be a lot easier this way:

E|----------------------------------------------------
B|----------------------------------------------------
G|----------------------------------------------------
D|444-222----000--------------------------------------
A|--------44-----444-00-------------------------------
E|----------------------------------------------------

just friendly advice

God bless, keep up the good work!


wowbertmz024 - 2006-07-24

This really helped especially the BASS. Dude it rocks!! Thanks and God bless!


blakehavens_20 - 2007-03-13

the into for the guitar lead goes

E-----------------------------------------
B-7--------------7-----7-------------------
G-9bend up to 11-7-----6-------------------
D------------------------------------------
A------------------------------------------
E-------------------------------------------

if you see what i mean
if you have any questions just ask below and i try to see if i know

i love playing guitar, i play for my youth band, and we rock
i would tap alot of hillsongs stuff because we do there songs all the time
but i never have time to so i just try to make comments and correction when i have time.
if you are reading this you are probly using this tab, i think it is better to learn songs by ear, so before you look at a tab try to figure it out yourself
and if you cant figure it out then i guess you can use the tabs

hope you have a good day,cus your awsome

les pauls rock


Add a comment/correction

Complimentary Christian Ringtones
Dadamobile and CGR have teamed up to bring your favorite Christian artists right to your phone. Sign up today and get 10 complementary ringtones!
Tab Country
Did you know CGR has a sister site w/ country guitar tabs? Well we do! Its called Tab Country. It has a great archive with a lot of country tabs.
Rockin Tabs
Are you looking for a site that has rock guitar tabs? Then Rockintabs.com is the place for you. It is a budding site with many rock guitar tabs. Submit your tab today.
Tab Gallery
Tab Gallery has a compilation of christian, rock, and country tabs all in one place. Come visit us.