Guitar Tabs
song title    band name

Join Us Today!

Don't strum alone...
be a part of the largest online Christian music community. Browse thousands of guitar tabs and chat w/ musicians like yourself.


It's Free!

This tab has been rated a 3.00 out of 5 for accuracy. (5 votes)Sorry, but you must be logged in to rate this tab.
Click here to log-in, or you can click here to register.
(Registration is free)

All songs owned by corresponding publishing company. If you make copies of any song on this website, be sure to report your usage to CCLI.
Submitted by: jamforchrist123

**************************
Band: Switchfoot   
Song: Stars        
Label: Sony Records
Tabbed by: jamforchrist123
**************************
 
Hey guys! Finaly a tab for stars, eh?  This might be long, but once you 
memorize this song, it is pretty easy to play.  The Second intro might 
not be note for note correct, but it is very close.   Also, I am not 
shure about the chords in the chorus, so I will show the way I play it.  
The verse chords I will not show how many times to play them, but it 
shouldn't be hard to figure out.  Same for the chorus and bridge.
HERE WE GO!


Tune To Drop D: DADGBE

Intro #1  
E|-------------------------------------------------------
B|-------------------------------------------------------
G|-----6-7----11----9-----13-16-14----6-7-----11----99-9-
D|-000-x-x-00-x--00-x-000-x--x--x--00-x-x-00--x--00-xx-x- 4x
A|-000-4-5-00-9--00-7-000-11-14-12-00-4-5-00--9--00-77-7-
D|-000-----00----00---000----------00-----00-----00------

Intro #2              First half   |   Second hlalf
E|--------------------------------------------------------------
B|--------------------------------------------------------------
G|--------------------------------------------------------------
D|-------------------------------------------------------------- 2x
A|-------4-5-----9-----0-7-----4-5--------4-5-----9-----0-7-777-
D|-0-2-0-----0-7---0-4-----0-2------0-2-0-----0-7---0-4---------
                      First half   |   Second half

Verse 1#
 
  D5
E|----------------------
B|-3--3--3--------3--2--
G|-2--0--2--5--0--2--2--
D|-0--0--0--5--0--2--2-- 2x
A|-0--5--0--3--5--0--0--
D|----5--------5--------


Prechorus
E|-------------
B|-------------
G|-------------
D|-5--7--9--10-
A|-5--7--9--10-
D|-5--7--9--10-


Chorus
E|------------- Then play  E|---------
B|-3--3-------- the second B|---------
G|-2--0--5----- half of    G|---------
D|-0--0--5--5-- intro 2    D|-5--2--5-
A|-0--5--3--5--            A|-5--2--5-
D|-0--5-----5--            D|-5--2--5-

***********************
Play the secnd intro 1x
***********************

Guitar 1 play verse 1# while 
guitar 2 plays this:

Second verse guitar 2
E|---------------------------------------------------------------
B|---------------------------------------------------------------
G|-------------------7-777---4-5-5-555---------------------------
D|-7-7-777-7-7-777-9-------7-----------5-5-555------------------- 2x
A|---------------------------------------------7-7-777-7-7-7-7---
D|---------------------------------------------------------------

************
Prechorus 1x
************

*********
Chorus 1x
*********

**********
intro 2 1x
**********

Bridge 
E|----------- Play second E|-----------------------
B|----------- half of     B|-----------------------
G|----------- intro 2.    G|--------------------4--
D|--5--4--7--             D|-5--4--7---5--7--4--5--
A|--5--5--7--             A|-5--5--7---5--7--5--5--
D|--5--4--7--             D|-5--4--7---5--7--4-----

************
Prechorus 1x
************

For that little part of the next chorus where it sounds
like nothing but singing, you can either play a nice 
D major chord then G major chord, or just play nothing.
When the guitars come back in, they play:

E|-12*------------
B|-12*------------
G|------5555555---
D|------5555555-5-
A|------3333333-5-
D|--------------5-

*********************************
Play second half of intro 2# then 
play the chorus the second time
*********************************

*******************
Play intro 2# twice
*******************

While playing intro 2# twice,
guitar 2 is playing:

E|---------12--10----------10---------
B|-12--10---x---x--12--10---x---------
G|--x---x---9---7---x---x---7--12--11-
D|--9---7-----------9---7-------x---x-
A|-----------------------------10---9-
D|------------------------------------


Jump up of your amp
or the bass drum 
and end on a big:

E|---
B|---
G|---
D|-0-
A|-0-
D|-0-


Comments about this tab

WashburnGuitar9 - 2007-05-09

nice...thats really good! but i have a better version and i'll tab it and it should be right so ENJOY!


Add a comment/correction

Complimentary Christian Ringtones
Dadamobile and CGR have teamed up to bring your favorite Christian artists right to your phone. Sign up today and get 10 complementary ringtones!
Tab Country
Did you know CGR has a sister site w/ country guitar tabs? Well we do! Its called Tab Country. It has a great archive with a lot of country tabs.
Rockin Tabs
Are you looking for a site that has rock guitar tabs? Then Rockintabs.com is the place for you. It is a budding site with many rock guitar tabs. Submit your tab today.
Tab Gallery
Tab Gallery has a compilation of christian, rock, and country tabs all in one place. Come visit us.