Guitar Tabs
song title    band name

Join Us Today!

Don't strum alone...
be a part of the largest online Christian music community. Browse thousands of guitar tabs and chat w/ musicians like yourself.


It's Free!

This tab has been rated a 4.67 out of 5 for accuracy. (3 votes)Sorry, but you must be logged in to rate this tab.
Click here to log-in, or you can click here to register.
(Registration is free)

All songs owned by corresponding publishing company. If you make copies of any song on this website, be sure to report your usage to CCLI.
Submitted by: pxlRawker

Artist: Blindside
Song: Fell in Love with the Game
Album: The Gread Depression

I've been playing around with this song, and I think it's not actually in drop D
at all. This is how I think it is:

Intro:
e|------------------------
B|------------------------
G|------------888-9999999-
D|-101010-999-xxx-xxxxxxx- (2x)
A|-101010-999-666-7777777-
E|-8-8-8--777-------------

Verse 1:
e|-----------------------------------------      e|-----------------
B|-8-8-8-8-7-7-----------------------------      B|-8-8-8-8-7-7-----
G|-9-9-9-9-8-8-3-4-------------888-9999999-      G|-9-9-9-9-8-8-3-4-
D|-x-x-x-x-x-x-x-x--101010-999-xxx-xxxxxxx- (3x) D|-x-x-x-x-x-x-x-x- (2x)
A|-7-7-7-7-6-6-1-2--101010-999-666-7777777-      A|-7-7-7-7-6-6-1-2-
E|------------------8-8-8--777-------------      E|-----------------
  ^^^^^(shots)^^^^^                                 ^^^^^(shots)^^^^^

Chorus:
e|--------------------------------------------------------------
B|----------------8---------------------------------------------
G|----------------9----/-16-----9------8-------9--9-9-9--9-9-9--
D|-5------5/7-7---x(8x)/-x-(8x)-x(11x)-x(5x)---x--x-x-x--x-x-x-- (2x)
A|-5(12x)-5/7-7---7----/-14-----7------6-------7--7-7-7--7-7-7--
E|-3------3/5-5-0----------------------------xx----0-0----0-0-0-
Just gotta listen for the rythm. The bass guitar carries most of the actual
"chords", like in many other Blindside songs.

Verse 2:
e|-----------------------------------------      e|-----------------
B|-8-8-8-8-7-7-----------------------------      B|-8-8-8-8-7-7-----
G|-9-9-9-9-8-8-3-4-------------888-9999999-      G|-9-9-9-9-8-8-3-4-
D|-x-x-x-x-x-x-x-x--101010-999-xxx-xxxxxxx- (3x) D|-x-x-x-x-x-x-x-x- (2x)
A|-7-7-7-7-6-6-1-2--101010-999-666-7777777-      A|-7-7-7-7-6-6-1-2-
E|------------------8-8-8--777-------------      E|-----------------
  ^^^^^(shots)^^^^^                                 ^^^^^(shots)^^^^^

Chorus:
e|--------------------------------------------------------------
B|----------------8---------------------------------------------
G|----------------9----/-16-----9------8-------9--9-9-9--9-9-9--
D|-5------5/7-7---x(8x)/-x-(8x)-x(11x)-x(5x)---x--x-x-x--x-x-x-- (2x)
A|-5(12x)-5/7-7---7----/-14-----7------6-------7--7-7-7--7-7-7--
E|-3------3/5-5-0----------------------------xx----0-0----0-0-0-

Bridge:
There is definitely more than one guitar going on at this point, and I'm sure
that one is doing octaves, quietly in the background, and I think it goes
something like this.
Guitar 1
e|----------------------------------------------------------------------------
B|----------------------------------------------------------------------------
G|-9----8----4-----5----4----8-----9----8----4-------16--16-16-16--16-16-16---
D|-x(8x)x(4x)x(4x)-x(8x)x(4x)x(4x)-x(8x)x(4x)x(4x)---x---x--x--x---x--x--x----
A|-7----6----2-----3----2----6-----7----6----2-------14--14-14-14--14-14-14---
E|------------------------------------------------1212-----12-12-----12-12-12-

e|----------------------------------------------------------------------------
B|---------------------------------8----8----8--------------------------------
G|-9----8----4-----5----4----8-----9----8----9-------16--16-16-16--16-16-16---
D|-x(8x)x(4x)x(4x)-x(8x)x(4x)x(4x)-x(8x)x(4x)x(4x)---x---x--x--x---x--x--x----
A|-7----6----2-----3----2----6-----7----6----7-------14--14-14-14--14-14-14---
E|------------------------------------------------1212-----12-12-----12-12-12-

Guitar 2
e|-0---  e|-0---
B|-5~--  B|-12~-
G|-----  G|-----
D|-----  D|-----
A|-----  A|-----
E|-----  E|-----

Verse 3:
e|-----------------------------------------------------------------------------
B|-----------------------------------------------------------------------------
G|-12---12-4-------------888-9999999--12--14-4-------------888-9999999--12\----
D|-x----x--x--101010-999-xxx-xxxxxxx--x---x--x--101010-999-xxx-xxxxxxx--x-\down
A|-10---9--2--101010-999-666-7777777--10--12-2--101010-999-666-7777777--10\----
E|------------8-8-8--777-------------------------8-8-8--777--------------------

Chorus:
e|--------------------------------------------------------------
B|----------------8---------------------------------------------
G|----------------9----/-16-----9------8-------9--9-9-9--9-9-9--
D|-5------5/7-7---x(8x)/-x-(8x)-x(11x)-x(5x)---x--x-x-x--x-x-x-- (2x)
A|-5(12x)-5/7-7---7----/-14-----7------6-------7--7-7-7--7-7-7--
E|-3------3/5-5-0----------------------------xx----0-0----0-0-0-

Outro:
e|------------------------      ---------------------
B|------------------------      ---------------------
G|------------888-9999999-      ------------888-9999-
D|-101010-999-xxx-xxxxxxx- (3x) -101010-999-xxx-xxxx-
A|-101010-999-666-7777777-      -101010-999-666-7777-
E|-8-8-8--777-------------      -8-8-8--777----------

Well, there's my two cents on the song. Comments and critique welcome!

Comments about this tab

js1000 - 2006-01-16

awesome...i believe it to be way more correct than the other two tabs for this song....i kept lookin at the others and i couldn't figure out why they were thinking drop D. i never heard any chords lower than the e5 and you figured out the chorus chords, too


akaukal - 2006-04-03

ya it doesnt make any sense going into drop d...this one is perfect


Add a comment/correction

Complimentary Christian Ringtones
Dadamobile and CGR have teamed up to bring your favorite Christian artists right to your phone. Sign up today and get 10 complementary ringtones!
Tab Country
Did you know CGR has a sister site w/ country guitar tabs? Well we do! Its called Tab Country. It has a great archive with a lot of country tabs.
Rockin Tabs
Are you looking for a site that has rock guitar tabs? Then Rockintabs.com is the place for you. It is a budding site with many rock guitar tabs. Submit your tab today.
Tab Gallery
Tab Gallery has a compilation of christian, rock, and country tabs all in one place. Come visit us.