Guitar Tabs
song title    band name

Join Us Today!

Don't strum alone...
be a part of the largest online Christian music community. Browse thousands of guitar tabs and chat w/ musicians like yourself.


It's Free!

This tab has been rated a 3.00 out of 5 for accuracy. (1 vote)Sorry, but you must be logged in to rate this tab.
Click here to log-in, or you can click here to register.
(Registration is free)

All songs owned by corresponding publishing company. If you make copies of any song on this website, be sure to report your usage to CCLI.
Submitted by: christ_meziahsa

ok!!!!here's the solo of the song,.i've heard it many times so i know that this solo is 99% correct............
e--------------------------------------------------------------------------------------------
B------7-8-----------------8--8/12--10--10-------------------------------------------
G-7/9~----7---------7---9----------------------------------------------------------
D-----------7---9-----------------------------------------------------------------
A-------------------------------------------------------------------------------
E-------------------------------------------------------------------------------

e--15-15-14-14-12-12-10-10------------------------------10-10-
B--------------------------12-10-8-10-----------8-10-12-------
G--------------------------------------7-7/9-11---------------
D-------------------------------------------------------------
A-------------------------------------------------------------
E-------------------------------------------------------------

 when i'm playing this lead part,i also listen to the music so i can hear some mistakes of mine......
i know ya'll like this speacially if you're a christian song lover.....
sorry for this very late tab it's because i'm a newly christian and i want to be  a very good christian just like all out there......
ok God bless you all.....

Comments about this tab

wdougall - 2006-02-04

Hey guys..this is how i did the solo on guitar pro 5.0. It is extremely accurate. Enjoy and God bless!

E Q Q E E E H Q E E
E||--------------------------|-------------------------|
B||--------------------7--8--|-------------------------|
G||--7s--9~----L----L--------|--7~--------L------------|
D||--------------------------|-----------------7s--12--|
A||--------------------------|-------------------------|
E||--------------------------|-------------------------|


Q Q Q Q E S S E E E Q E
--------------------------|---------------------------------|
--------------------8~----|--12--12-12-12--10--10~--L----L--|
--------7~----9~----------|---------------------------------|
--9~----------------------|---------------------------------|
--------------------------|---------------------------------|
--------------------------|---------------------------------|


S E S S E S S E S S E S E E E E E E E E
--12s-15-----------------------------------|-------------------------------|
------------15s-17----12s-15----10s-12~--L-|---L--10--8--10----------------|
-------------------------------------------|--------------------7--7s--9~--|
-------------------------------------------|-------------------------------|
-------------------------------------------|-------------------------------|
-------------------------------------------|-------------------------------|


E Q Q Q E E Q Q Q E
-------------------------------|---------------------------|
-------------------------------|-----15~----15~------------|
--L--11~----12~----14~----16~--|--L------------------------|
-------------------------------|---------------------------|
-------------------------------|---------------------------|
-------------------------------|---------------------------|


Q E Q E E E 4x
|--------------------------||
|---8----7--5----3--5--7---||
|*------------------------*||
|*------------------------*||
|--------------------------||
|--------------------------||




Duration Legend
---------------
W - whole
H - half
Q - quarter
E - 8th
S - 16th
T - 32nd
X - 64th
. - note dotted
|-n-| - n-tuplets


Tablature Legend
----------------
L - tied note
x - dead note
g - grace note
(n) - ghost note
> - accentuded note
NH - natural harmonic
AH - artificial harmonic
TH - tapped harmonic
SH - semi harmonic
PH - pitch harmonic
h - hammer on
p - pull off
b - bend
br - bendRelease
pb - preBend
pbr - preBendRelease
brb - bendReleaseBend
\n/ - tremolo bar dip
\n - tremolo bar dive
-/n - tremolo bar Release up
/n\ - tremolo bar inverted dip
/n - tremolo bar return
-\n - tremolo bar Release down
S - shift slide
s - legato slide
/ - slide into from below or out of upwards
\ - slide into from above or out of downwards
~ - vibrato
W - wide vibrato
tr - trill
TP - tremolo picking
T - tapping
S - slap
P - pop
< - fade in
^ - brush up
v - brush down


wdougall - 2006-02-04

Oh and by the way the L's or tied notes simply mean hold the last note (let it ring) until the next new note


wowbertmz024 - 2006-07-24

Thanks!! I love Hillsong United


wowbertmz024 - 2006-07-24

Thanks!! I love Hillsong United


Add a comment/correction

Complimentary Christian Ringtones
Dadamobile and CGR have teamed up to bring your favorite Christian artists right to your phone. Sign up today and get 10 complementary ringtones!
Tab Country
Did you know CGR has a sister site w/ country guitar tabs? Well we do! Its called Tab Country. It has a great archive with a lot of country tabs.
Rockin Tabs
Are you looking for a site that has rock guitar tabs? Then Rockintabs.com is the place for you. It is a budding site with many rock guitar tabs. Submit your tab today.
Tab Gallery
Tab Gallery has a compilation of christian, rock, and country tabs all in one place. Come visit us.