Guitar Tabs
song title    band name

Join Us Today!

Don't strum alone...
be a part of the largest online Christian music community. Browse thousands of guitar tabs and chat w/ musicians like yourself.


It's Free!

This tab has not yet been rated for accuracy.Sorry, but you must be logged in to rate this tab.
Click here to log-in, or you can click here to register.
(Registration is free)

All songs owned by corresponding publishing company. If you make copies of any song on this website, be sure to report your usage to CCLI.
Submitted by: Wousie

Title: Let go
Artist: 12 Stones

Instrument: Guitar

Tabbed by: WW 

Link: http://www.sunhawk.com/ProductDetail.aspx?PRODID=297330

Tuning: 1 Step Down (D G C F A D)

Headline of the song. Intro is 100% correct (see link). All credits to them!
b= bend
r= release
x= don't play that string

I've made this tab quickly, so some mistakes are probably in it (names of chords etc), but it's the right way to play! 


CHORDS
   Em   Dadd9  Cadd9    F5    C5    Bb5    G5     D5    A5
D|--0-----0-----x-------x-----x------x------x------x-----x-----||
A|--0-----3-----3-------x-----x------x------x------x-----x-----||
F|--0-----0-----0-------x-----5------3------x------7-----x-----||
C|--2-----4-----2-------3-----5------3------5------7-----7-----||
G|--2-----5-----3-------3-----3------1------5------5-----7-----||
D|--0-----x-----x-------1-----x------x------3------x-----5-----||


INTRO
D|-3------3-----3/5---2-------2-----2/3\2--------0------0-----------0--||
A|----0-----0------------0------0----------3-------3------3--3--3/5---0||
F|---------------------------------------------0------0----------------||
C|-2----2-------2-----0-----0-------0----------------------------------||
G|-----------------------------------------3----------3-----3---3------||
D|---------------------------------------------------------------------||


LITTLE SOLO 
   Em              D9                      C9             
D|--------------------------------------------------12-----------------||
A|-----------------------------------------------12----12--15--15b17---||
F|-------12-14-12--14b16--12--14--12-------14b16-----------------------||
C|--14--------------------------------14-------------------------------||
G|---------------------------------------------------------------------||
D|---------------------------------------------------------------------||

D|---------------------------------------------------------------------||
A|--15b17r15---12-15-12------------------------------------------------||
F|----------------------14--12------12---------------------------------||
C|------------------------------14------14--12--14---------------------||
G|---------------------------------------------------------------------||
D|---------------------------------------------------------------------||




VERSE: Em  Dadd9  Cadd9


CHORUS: F5  C5  Bb5


BRIDGE: C5  G5  Bb5  D5  A5  C5  (C5)  G5  Bb5  G5  A5  Bb5


OUTRO: see INTRO

Comments about this tab

No comments/corrections found. Add your own

Complimentary Christian Ringtones
Dadamobile and CGR have teamed up to bring your favorite Christian artists right to your phone. Sign up today and get 10 complementary ringtones!
Tab Country
Did you know CGR has a sister site w/ country guitar tabs? Well we do! Its called Tab Country. It has a great archive with a lot of country tabs.
Rockin Tabs
Are you looking for a site that has rock guitar tabs? Then Rockintabs.com is the place for you. It is a budding site with many rock guitar tabs. Submit your tab today.
Tab Gallery
Tab Gallery has a compilation of christian, rock, and country tabs all in one place. Come visit us.