Guitar Tabs
song title    band name

Join Us Today!

Don't strum alone...
be a part of the largest online Christian music community. Browse thousands of guitar tabs and chat w/ musicians like yourself.


It's Free!

This tab has been rated a 5.00 out of 5 for accuracy. (2 votes)Sorry, but you must be logged in to rate this tab.
Click here to log-in, or you can click here to register.
(Registration is free)

All songs owned by corresponding publishing company. If you make copies of any song on this website, be sure to report your usage to CCLI.
Submitted by: Adam K

Relient K-Apathetic Way To Be
From:Apathetic EP
Drop C# Tuning Db-Ab-Db-Gb-Bb-Eb

Intro 
Eb[----------------------------------------------------------]
Bb[-----5-5-5--7-7-7--5-5-5--7-7-7-7-7-7--10-10-10--7-7-7-8~-]
Gb[-----7-7-7--7-7-7--7-7-7--7-7-7-7-7-7---7--7--7--7-7-7-7--]
Db[----------------------------------------------------------]
Ab[----------------------------------------------------------]
Db[----------------------------------------------------------]

Eb[-----------------------------------------------]
Bb[-----------------------------------------------]
Gb[-----------------------------7-----------------]
Db[--------------4-------5------7-----7-------5---]
Ab[--------------5-------5------5-----7-------5---]
Db[--------------4-------5------------7-------5---]

Verse
Eb[----------------------------------------------------------------------]
Bb[----------------------------------------------------------------------]
Gb[-----9-9-9--7-7-7-7--------------------------7-7-7-7------------------]
Db[-----9-9-9--7-7-7-7--9-9-9---7-7-7-7--5-5-5--7-7-7-7--7-7-7--6-6-6-6--]
Ab[-----7-7-7--5-5-5-5--9-9-9---7-7-7-7--5-5-5--5-5-5-5--7-7-7--7-7-7-7--]
Db[---------------------9-9-9---7-7-7-7--5-5-5-----------7-7-7--6-6-6-6--]


Eb[----------------------------------------------------------------------]
Bb[----------------------------------------------------------------------]
Gb[------------7-7-7-7-------------------9-9-9--7-7-7-7------------------]
Db[-----5-5-5--7-7-7-7--9-9-9---7-7-7-7--9-9-9--7-7-7-7--9-9-9---7-7-7-7-]
Ab[-----5-5-5--5-5-5-5--9-9-9---7-7-7-7--7-7-7--5-5-5-5--9-9-9---7-7-7-7-]
Db[-----5-5-5-----------9-9-9---7-7-7-7------------------9-9-9---7-7-7-7-]


Eb[--------------------------------------------------------------------]
Bb[--------------------------------------------------------------------]
Gb[---9-9-9--7-7-7-7--------------------------7-7-7-7------------------]
Db[---9-9-9--7-7-7-7--9-9-9---7-7-7-7--5-5-5--7-7-7-7--7-7-7---6-6-6-6-]
Ab[---7-7-7--5-5-5-5--9-9-9---7-7-7-7--5-5-5--5-5-5-5--7-7-7---7-7-7-7-]
Db[-------------------9-9-9---7-7-7-7--5-5-5-----------7-7-7---6-6-6-6-]


Eb[-------------------------------------------------------------------]
Bb[-------------------------------------------------------------------]
Gb[---------7-7-7-7-------------------9-9-9--7-7-7-7------------------]
Db[--5-5-5--7-7-7-7--9-9-9---7-7-7-7--9-9-9--7-7-7-7--5-5-5---7-7-7-7-]
Ab[--5-5-5--5-5-5-5--9-9-9---7-7-7-7--7-7-7--5-5-5-5--5-5-5---7-7-7-7-]
Db[--5-5-5-----------9-9-9---7-7-7-7------------------5-5-5---7-7-7-7-]

Chorus 
Eb[----------------------------------------]
Bb[----------------------------------------]
Gb[---------7------------------------------]
Db[-----5---7---9-9-9--7-7-7---------------]
Ab[-----5---5---9-9-9--7-7-7---------------]
Db[-----5-------9-9-9--7-7-7---------------]x3
	       

Eb[----------------------------------------]
Bb[----------------------------------------]
Gb[---------7------------------------------]
Db[-----5---7----7-------------------------]
Ab[-----5---5----7-------------------------]
Db[-----5--------7-------------------------]


Intro (x2)

Verse again

Chorus

Bridge
(The second time they pluck different strings of these chords)
Eb[----------------------------------------------]
Bb[----------------------------------------------]
Gb[----7---6---4---------------------------------]
Db[----7---7---4---5-----------------------------]
Ab[----5---4---2---5-----------------------------](x2)
Db[----------------5-----------------------------]


Eb[----------------------------------------]
Bb[----------------------------------------]
Gb[----------------7-----------------------]
Db[--------4---5---7---7---5---------------]
Ab[--------5---5---5---7---5---------------]
Db[--------4---5-------7---5---------------]


Eb[----------------------------------------]
Bb[----------------------------------------]
Gb[----------------------------------------]
Db[-----------------------------8-8-8-8----]
Ab[----------------------------------------]
Db[----------------------------------------]

Intro

Bridge #2 
eb[------------------------------------------------------------]
Bb[------------------------------------------------------------]
Gb[-------------------------7-7------7-7------7-7-7-----7-7-7--]
Db[----9---8---7---6----5---7-7--5---7-7--5---7-7-7--5--7-7-7--]
Ab[----9---9---7---7----5---5-5--5---5-5--5---5-5-5--5--5-5-5--]
Db[----9---8---7---6----5--------5--------5----------5---------]



Eb[----------------------------------------------]
Bb[----------------------------------------------]
Gb[----------------------------------------------]
Db[----9---8---7---6----5--7--9--12---5---7------]
Ab[----9---9---7---7----5--7--9--12---5---7------]
Db[----9---8---7---6----5--7--9--12---5---7------]


Chorus x2

A made some major alterations from the other "Apathetic...." 

Tabbed by Adam K

Comments about this tab

Hauck - 2006-02-20

Nice job, sounds pretty accurate


TFKmaniac92 - 2006-04-17

sounds pretty good.....but Relient K never actually uses C# tuning, they just play all 1/2 step but its still the same notes u had pretty much


LemonySnicket - 2006-08-19

I LOVE THIS SONG!!!


Add a comment/correction

Complimentary Christian Ringtones
Dadamobile and CGR have teamed up to bring your favorite Christian artists right to your phone. Sign up today and get 10 complementary ringtones!
Tab Country
Did you know CGR has a sister site w/ country guitar tabs? Well we do! Its called Tab Country. It has a great archive with a lot of country tabs.
Rockin Tabs
Are you looking for a site that has rock guitar tabs? Then Rockintabs.com is the place for you. It is a budding site with many rock guitar tabs. Submit your tab today.
Tab Gallery
Tab Gallery has a compilation of christian, rock, and country tabs all in one place. Come visit us.