Guitar Tabs
song title    band name

Join Us Today!

Don't strum alone...
be a part of the largest online Christian music community. Browse thousands of guitar tabs and chat w/ musicians like yourself.


It's Free!

This tab has been rated a 4.75 out of 5 for accuracy. (4 votes)Sorry, but you must be logged in to rate this tab.
Click here to log-in, or you can click here to register.
(Registration is free)

All songs owned by corresponding publishing company. If you make copies of any song on this website, be sure to report your usage to CCLI.
Submitted by: Rockin_4_Yeshua

Song Title: Understand
Artist: Jeremy Camp
Album: Stay

Tabber: Rockin_4_yeshua


INTRO:

Guitar 1
   
  Bm     A     G
E---------------3-----------------------  Play 3x (1st time without lead)
B---3-----2-----3-----------------------
G---4-----2-----0-----------------------
D---4-----2-----0-----------------------
A---2-----------x-----------------------
E---------------3-----------------------
|
|Guitar 2
|
Eó------5----------5----------5----5----  Play 2x (after chords 1st time)
B-2h3p2--5-3-2h3p2--5-3-2h3p2--5-3--5-3-
G---------------------------------------
D---------------------------------------
A---------------------------------------
E---------------------------------------
|
|Guitar 3
|
E--------------------------------------- Play 3x
B---------------------------------------
G---7-----6-----4-----------------------
D---------7-----5-----------------------
A---5-----------------------------------
E---7-----5-----3-----------------------


VERSE 1:

Guitar 1
   
  Bm     A     G
E---------------3----------------------- Play 4x
B---3-----2-----3-----------------------
G---4-----2-----0-----------------------
D---4-----2-----0-----------------------
A---2-----------x-----------------------
E---------------3-----------------------
|
|Guitar 2
|
E-----------------|----7----5----3------ Chords 2x - Pick 2x
B-----------------|---------------------
G---7-----6-----4-|---7----6----4-------
D---------7-----5-|-------7----5--------
A---5-----x-----x-|--5------------------
E---7-----5-----3-|-7----5----3---------

CHORUS:

Guitar 1
   G     A     Bm
E---3----------------------------------- Play 3x
B---3------2------3---------------------
G---0------2------4-/-6-/-7-------------
D---0------2------4---------------------
A---x-------------2-/-4-/-5-------------
E---3-----------------------------------
|
|Guitar 2
|
E--------------------------------------- Play 3x
B---------------------------------------
G---4------6------7---------------------
D---5------7----------------------------
A-----------------5---------------------
E---3------5------7---------------------

INTERLUDE:

Guitar 1
   
  Bm     A     G
E---------------3-----------------------  First time through
B---3-----2-----3-----------------------
G---4-----2-----0-----------------------
D---4-----2-----0-----------------------
A---2-----------x-----------------------
E---------------3-----------------------
|
|Guitar 2
|
Eó------5----------5----------5----5----   
B-2h3p2--5-3-2h3p2--5-3-2h3p2--5-3--5-3-
G---------------------------------------
D---------------------------------------
A---------------------------------------
E---------------------------------------
|
|Guitar 3
|
E--------------------------------------- 
B---------------------------------------
G---7-----6-----4-----------------------
D---------7-----5-----------------------
A---5-----------------------------------
E---7-----5-----3-----------------------


Guitar 1
   
  Bm     A     G
E---------------3-----------------------  Second time through
B---3-----2-----3-----------------------
G---4-----2-----0-----------------------
D---4-----2-----0-----------------------
A---2-----------x-----------------------
E---------------3-----------------------
|
|Guitar 2
|
E---------------------------------------
B--7-7-5h7-5h7---7-7-5h7-5/3------------
G----------------------------6-4--------
D---------------------------------------
A---------------------------------------
E---------------------------------------
|
|Guitar 3
|
E--------------------------------------- 
B---------------------------------------
G---7-----6-----4-----------------------
D---------7-----5-----------------------
A---5-----------------------------------
E---7-----5-----3-----------------------

VERSE 2:

Guitar 1
   
  Bm     A     G
E---------------3----------------------- Play 4x
B---3-----2-----3-----------------------
G---4-----2-----0-----------------------
D---4-----2-----0-----------------------
A---2-----------x-----------------------
E---------------3-----------------------
|
|Guitar 2
|               x2                      x2
E---7-----5-----3-|-----7--------5--------3----- Chords 2x - Pick 2x
B-----------------|-----------------------------
G---7-----6-----4-|--7----7----6---6----4---4---
D---------7-----5-|-------------7---7----5---5--
A---5-----x-----x-|---5----5--------------------
E---7-----5-----3-|-7---------5--------3--------

REPEAT CHORUS:


BRIDGE:

Guitar 1

E-------------2------------------------- Play 4x
B---3---------3-------------------------
G---4----2----2-------------------------
D---4----2----0-------------------------
A---2----4------------------------------
E--------x------------------------------
|
|Guitar 2
|
E--------------------------------------- Play 4x
B---3----5----7-------------------------
G---4----6----7-------------------------
D---x----x----x-------------------------
A---2----4----5-------------------------
E---------------------------------------

Guitar 1

E---3----------------------------------- Play 2x
B---3----2----3-------------------------
G---0----2----4-------------------------
D---0----2----4-------------------------
A---x---------2-------------------------
E---3-----------------------------------
|
|Guitar
|
E--------------------------------------- Play 2x
B---------------------------------------
G---4----6----7-------------------------
D---5----7------------------------------
A-------------5-------------------------
E---3----5----7-------------------------


ENDING ON CHORUS.

Guitar 1
   G     A     Bm
E---3----------------------------------- Play 3x
B---3------2------3---------------------
G---0------2------4-/-6-/-7-------------
D---0------2------4---------------------
A---x-------------2-/-4-/-5-------------
E---3-----------------------------------
|
|Guitar 2
|
E--------------------------------------- Play 3x
B---------------------------------------
G---4------6------7---------------------
D---5------7----------------------------
A-----------------5---------------------
E---3------5------7---------------------

Rock on everyone!!!

Comments about this tab

No comments/corrections found. Add your own

Complimentary Christian Ringtones
Dadamobile and CGR have teamed up to bring your favorite Christian artists right to your phone. Sign up today and get 10 complementary ringtones!
Tab Country
Did you know CGR has a sister site w/ country guitar tabs? Well we do! Its called Tab Country. It has a great archive with a lot of country tabs.
Rockin Tabs
Are you looking for a site that has rock guitar tabs? Then Rockintabs.com is the place for you. It is a budding site with many rock guitar tabs. Submit your tab today.
Tab Gallery
Tab Gallery has a compilation of christian, rock, and country tabs all in one place. Come visit us.