Guitar Tabs
song title    band name

Join Us Today!

Don't strum alone...
be a part of the largest online Christian music community. Browse thousands of guitar tabs and chat w/ musicians like yourself.


It's Free!

This tab has not yet been rated for accuracy.Sorry, but you must be logged in to rate this tab.
Click here to log-in, or you can click here to register.
(Registration is free)

All songs owned by corresponding publishing company. If you make copies of any song on this website, be sure to report your usage to CCLI.
Submitted by: CrossMovement

Song Number 4120029 
Author Marty Sampson 
Copyright 2003 Hillsong Publishing 
(Admin. in U.S. & Canada by Integrity's Hosanna! Music) 
Catalog Hillsong Publishing  
Admin Integrity Music, Inc. 

Okay first off this song is really cool and easy to play. It can sound 
complicated to some but its pretty much all on the B & E string

Intro: N/A

Bridge
Effect: Auto Volume 
        Plate Reverb 
e ----------------------------------------------------------------------
b -----------7/----------------10/-----9/-------7/---------------------5
g ----------------------------------------------------------------------
  Love                                                                 world

Chorus:
e ----------------------------------------------------------------------
b ------15---14--15--------14-14--14--12-14-12--------------------------
g ----------------------------------------------------------------------
  And                                  You

e ----------------------------------------------------------------------
b 14-14/15-15-15-----------------14-14-14-12----------------------------
g ----------------------------------------------------------------------
  Jesus                                 me

Crazy soundy thing that has delay in between chorus and second verse

e -12-9------ e -0-9------ 
b ------10-9- b ----10-9--
g ----------- g ----------

Verse plays the same as that crazy thing above, but your really going 
to have to listen to the timeing

Verse 2

e -------------12---9----------------12---9-----------------------------
b ----------------------10-9------------------10--9---------------------
g ----------------------------------------------------------------------
              mountain                        walk 

e ------9-------9-------9-------12-------12-------9-------9-------
b 10-10---10-10---10-10---10-10----10-10----10-10---10-10---------
g ----------------------------------------------------------------
  (This is the instrumental in between the two parts of the verse)

e -------------12-9-------------12--9-----------------------------------
b ------------------10-9---------------10--9-------10-10/12-------------
g ----------------------------------------------------------------------  
  You                                                     on


Okay here's the Solo. First off there are two guitars 

Guitar 1 is doing holding down the rythm and comes in at 5:57 like this:

e -----------------------------------------
b 5-5-5-5-5-5-5-5-3-3-3-3-h-5-5-5-5-5-5-5-5
g -----------------------------------------

Then he switches it up like this (same patter different strings)

e -----------------------------------------
b 7-7-7-7-7-7-7-7-5-5-5-5-h-7-7-7-7-7-7-7-7
g -----------------------------------------

Guitar 2 like this @ 6:29

e -------------------------------------------------------
b 10-10-10-10-10-10-10-10-/-12-12-12-12-12-12-12-12-12-12
g -------------------------------------------------------

e -------------------------------------------------------
b 17-17-17-17-17-17-17-17-19-19-19-19-17-17-17-17--------
g -------------------------------------------------------

e -------------------------------------------------------
b 10-(8x)-12(8x)/17(8x)-19-19-19-17-17-17-15-15-15/17(6x)
g -------------------------------------------------------

e -------------------------------------------------------
b 15-15-15-17--------------------------------------------
g -------------------------------------------------------

Play for the fame of God,
Peter


 


Comments about this tab

jose rene - 2005-12-06

THANK you for this tabs it's a big help for our church music.


Add a comment/correction

Complimentary Christian Ringtones
Dadamobile and CGR have teamed up to bring your favorite Christian artists right to your phone. Sign up today and get 10 complementary ringtones!
Tab Country
Did you know CGR has a sister site w/ country guitar tabs? Well we do! Its called Tab Country. It has a great archive with a lot of country tabs.
Rockin Tabs
Are you looking for a site that has rock guitar tabs? Then Rockintabs.com is the place for you. It is a budding site with many rock guitar tabs. Submit your tab today.
Tab Gallery
Tab Gallery has a compilation of christian, rock, and country tabs all in one place. Come visit us.