Guitar Tabs
song title    band name

Join Us Today!

Don't strum alone...
be a part of the largest online Christian music community. Browse thousands of guitar tabs and chat w/ musicians like yourself.


It's Free!

This tab has been rated a 3.33 out of 5 for accuracy. (3 votes)Sorry, but you must be logged in to rate this tab.
Click here to log-in, or you can click here to register.
(Registration is free)

All songs owned by corresponding publishing company. If you make copies of any song on this website, be sure to report your usage to CCLI.
Submitted by: Da Flufsta

Stryper-Live Again
year-2005
Big3 records
Tabbed By-Da Flufsta

Drop d tuning


[----------------------------------------
[----------------------------------------
[--------4--------3--------2--------2-0-2 Repeat
[--5-5-4-4--5-5-4-3--5-5-4-2--5-5-4-2-0-2 many times
[--5-5-4-2--5-5-4-1--5-5-4-0--5-5-4-2-0-2
[--3-3-2----3-3-2----3-3-2----3-3-2------


[------------------------------
[------------------------------
[------------------------------
[--8-7-6-x-x-x-x--6-5-4-x-x-x-x
[--8-7-6-x-x-x-x--6-5-4-x-x-x-x
[--6-5-4-x-x-x-x--4-3-2-x-x-x-x

[----------------------------------------
[----------------------------------------
[--------4--------3--------2------------- 
[--5-5-4-4--5-5-4-3--5-5-4-2--5-5-4-2-0-2 
[--5-5-4-2--5-5-4-1--5-5-4-0--5-5-4-2-0-2
[--3-3-2----3-3-2----3-3-2----3-3-2-2-0-2

[------------------------------
[------------------------------
[------------------------------
[--8-7-6-x-x-x-x--6-5-4-x-x-x-x
[--8-7-6-x-x-x-x--6-5-4-x-x-x-x
[--6-5-4-x-x-x-x--4-3-2-x-x-x-x

[----------------------------------------
[----------------------------------------
[--------4--------3--------2------------- 
[--5-5-4-4--5-5-4-3--5-5-4-2--5-5-4-2-0-2 
[--5-5-4-2--5-5-4-1--5-5-4-0--5-5-4-2-0-2
[--3-3-2----3-3-2----3-3-2----3-3-2-2-0-2
Here there is a second guitar playing here but I wasn't able to tab it.

thats it hope you enjoy it 

If you want to e-mail me to tell me what a great tab this is(ha-ha)my e-mail
is the_second_lost_hippy@yahoo.ca

Comments about this tab

c_crab35 - 2005-12-20

This version of live again is the most accurate version I have seen. It sounds really good!!!


Da Flufsta - 2006-01-30

i'm sorry i made a mastake its not in drop d tuning


steve1 - 2006-05-11

sorry man, i'm trying to play what you have written here but it dosen't sound right. bless ya


Add a comment/correction

Complimentary Christian Ringtones
Dadamobile and CGR have teamed up to bring your favorite Christian artists right to your phone. Sign up today and get 10 complementary ringtones!
Tab Country
Did you know CGR has a sister site w/ country guitar tabs? Well we do! Its called Tab Country. It has a great archive with a lot of country tabs.
Rockin Tabs
Are you looking for a site that has rock guitar tabs? Then Rockintabs.com is the place for you. It is a budding site with many rock guitar tabs. Submit your tab today.
Tab Gallery
Tab Gallery has a compilation of christian, rock, and country tabs all in one place. Come visit us.