Guitar Tabs
song title    band name

Join Us Today!

Don't strum alone...
be a part of the largest online Christian music community. Browse thousands of guitar tabs and chat w/ musicians like yourself.


It's Free!

This tab has been rated a 4.00 out of 5 for accuracy. (3 votes)Sorry, but you must be logged in to rate this tab.
Click here to log-in, or you can click here to register.
(Registration is free)

All songs owned by corresponding publishing company. If you make copies of any song on this website, be sure to report your usage to CCLI.
Submitted by: eclipse_047

Artist-Project 86
Song-Spy Hunter
Tabbed by-eclipse_047
this song is played in Drop D

Into
|---------------------------------------------------|
|---------------------------------------------------|
|14-----14-----14-----10------9--9-10-10------------|
|12-x-x-12-x-x-12-x-x-12-x-x-12-12-12-12------------|
|---------------------------------------------------|
|---------------------------------------------------|
                                             2 Times
|--------------*4-----*4----------------------------|
|--------------*4-----*4----------------------------|
|--------------*4-----*4----------------------------|
|-0--6-6-6--0--*4--0--*4----------------------------|
|-0--6-6-6--0--*4--0--*4--One last Disguise---------|
|-0--6-6-6--0--*4--0--*4----------------------------|

|---------------------------------------------------|
|---------------------------------------------------|
|---------------------------------------------------|
|---------------------------------------------------|
|---------------------------------------------------|
|-0-6-0-0-6-0-0-3-0-2-0-3-2--0-6-0-0-6-0-0-3-0-2-0-3|
                                        Play 5 times
|-----------------------------------|
|-----------------------------------|
|-----------------------------------|
|-0-x-2-2-x-3-3-x-6-x-x-5-5-6-6-6-6-|
|-0-x-2-2-x-3-3-x-6-x-x-5-5---------|
|-0-x-2-2-x-3-3-x-6-x-x-5-5---------|
                                    
|---------------------------------------------|
|---------------------------------------------|
|---------------------------------------------|
|-0-x-2-2-x-3-3-x-6-x-x-5-5-6-6-6-6-6h7-7-7-7-|
|-0-x-2-2-x-3-3-x-6-x-x-5-5-------------------|
|-0-x-2-2-x-3-3-x-6-x-x-5-5-------------------|

|---------------------------------------|
|---------------------------------------|
|---14-14-14-14-12-12-12-12-10-10-10-10-|
|-0-12-12-12-12-12-12-12-12-12-12-12-12-|
|-0-------------------------------------|
|-0-------------------------------------|
                            Play 8 Times
|----*4-------------------------------------|
|----*4-------------------------------------|
|----*4-------------------------------------|
|-0--*4--<<<<<<<<<<<<<<<<<<<<<<<<<<<<<<<<<<<|
|-0--*4--Slide pick up strings--------------|
|-0--*4--<<<<<<<<<<<<<<<<<<<<<<<<<<<<<<<<<<<|

|------------------------------------------------------|
|------------------------------------------------------|
|------------------------------------------------------|
|-0-----6-----3-----5-8-8h10-Last time-6-6-6-6-6-6-6-6-|
|-0-5h6-6-5h6-3-5h6-5-8-8h10---------------------------|
|-0-----6-----3-----5-8-8h10---------------------------|
                                           Play 4 Times
Tab Chart
(*) Harmonic
(<) Slide pick on strings
(h) Hammer on
(x) Palm mute
  Enjoy This tab hope you enjoy it as much as i do!have fun

Please tell me if you think something is wrong

Comments about this tab

No comments/corrections found. Add your own

Complimentary Christian Ringtones
Dadamobile and CGR have teamed up to bring your favorite Christian artists right to your phone. Sign up today and get 10 complementary ringtones!
Tab Country
Did you know CGR has a sister site w/ country guitar tabs? Well we do! Its called Tab Country. It has a great archive with a lot of country tabs.
Rockin Tabs
Are you looking for a site that has rock guitar tabs? Then Rockintabs.com is the place for you. It is a budding site with many rock guitar tabs. Submit your tab today.
Tab Gallery
Tab Gallery has a compilation of christian, rock, and country tabs all in one place. Come visit us.