Guitar Tabs
song title    band name

Join Us Today!

Don't strum alone...
be a part of the largest online Christian music community. Browse thousands of guitar tabs and chat w/ musicians like yourself.


It's Free!

This tab has not yet been rated for accuracy.Sorry, but you must be logged in to rate this tab.
Click here to log-in, or you can click here to register.
(Registration is free)

All songs owned by corresponding publishing company. If you make copies of any song on this website, be sure to report your usage to CCLI.
Submitted by: Choysauce85

Song:The Truth
Artist:Relient K
Album: Apathetic EP
Label:Capitol Records
Tabbed by:Choysauce

once i heard this i just had to tab it!
some of the rythms are a bit funky, but if u listen 
u should be able to pick up on what i mean
let me know if any of it is wrong! so yea


Intro

Lead
e------------------------------------------------x---------------------------
B------------------------------------------------x---------------------------
G--6666-6----5----5--6--8----11--10---/0---------x---------------------------
D-------x----x----x--x--x----x---x----/0---------x---------------------------
A-------4----3----3--4--6----9---8----/0---------x---------------------------
E------------------------------------------------x---------------------------
		  |-----|shortened rythm         strum these a measure
Rythm
e------------------------------------------------x---------------------------
B------------------------------------------------x---------------------------
G------6----------------6------------------------x---------------------------
D------6----8-----4-----6------------------------x---------------------------
A------4----8-----4-----4------------------------x---------------------------
E-----------6-----2------------------------------x---------------------------




Verse


e---------------------------------------------------------------------------
B---------------------------------------------------------------------------
G---6----------------------6------------------------------------------------
D---6----8----4----6-------6----4----8----6---------------------------------
A---4----8----4----6-------4----4----8----6---------------------------------
E--------6----2----4------------2----6----4---------------------------------

Pre-Chorus

(1st half no guitars)

Rythm
e-----------------------------
B-----------------------------
G----6-6-6-6-6-6-6-6----------
D-----------------------------
A-----------------------------
E-----------------------------x4 (end on 3rd beat of 4th measure)
     * * * * * * * *

Piano
e---------------------------------
B----2-4--2-4--2-4--2-4--2-4------
G---------------------------------
D---------------------------------
A---------------------------------
E---------------------------------x4 (end on 3rd beat of 4th measure)

Chorus


e---------------------------------------------------------------------------
B---------------------------------------------------------------------------
G-----6----5----------------------------------------------------------------
D-----6----5-----4---6------------------------------------------------------
A-----4----3-----4---6------------------------------------------------------
E----------------2---4------------------------------------------------------
      | hold C# for 3 bars

e---------------------------------------------------------------------------
B---------------------------------------------------------------------------
G-------6----5----5--6--8----11--10-----------------------------------------
D-------x----x----x--x--x----x---x------------------------------------------
A-------4----3----3--4--6----9---8------------------------------------------
E---------------------------------------------------------------------------

verse 2

C# Strum and let RING
Piano action!

Rythm
e-----------------------------------------------------------------------------
B-----------------------------------------------------------------------------
G----6------------------------------------------------------------------------
D----6---4----8---6-----------------------------------------------------------
A----4---4----8---6-----------------------------------------------------------
E--------2----6---4-----------------------------------------------------------
     *   *    *   * (let off palm mute after a bit)

=======
Chorus

e-----------------------------------------------------------------------------
B-----------------------------------------------------------------------------
G-----6----5-----------------6---5--------------------------------------------
D-----6----5-----4---6-------6---5--------------------------------------------
A-----4----3-----4---6-------4---3--------------------------------------------
E----------------2---4--------------------------------------------------------
      | hold C# for 3 bars


e-----------------------------------------------------------------------------
B-----------------------------------------------------------------------------
G-----6----5------------------------------------------------------------------
D-----6----5-----4~~~---6~~~--------------------------------------------------
A-----4----3-----4~~~---6~~~--------------------------------------------------
E----------------2~~~---4~~~--------------------------------------------------
      | hold C# for 3 bars

Quiet Part Again

Bridge

(buildup)
e-------------|---------------------------------------------------------------
B-------------|---------------------------------------------------------------
G-------------|----6---5-----------------6---5--------------------------------
D---4---6-----|----6---5----4----6-------6---5--------------------------------
A---4---6-----|----4---3----4----6-------4---3--------------------------------
E---2---4-----|-------------2----4--------------------------------------------
    *   *





e-----------------------------------------------------------------------------
B-----------------------------------------------------------------------------
G--6---5-------------------------------------6~-------------------------------
D--6---5----4~---6~---4~---6~---4~---6~------6~-------------------------------
A--4---3----4~---6~---4~---6~---4~---6~------4~-------------------------------
E-----------2~---4~---2~---4~---2~---4~---------------------------------------
                                (acoustic)


awesomeness RK does it again! Enjoy~

Comments about this tab

No comments/corrections found. Add your own

Complimentary Christian Ringtones
Dadamobile and CGR have teamed up to bring your favorite Christian artists right to your phone. Sign up today and get 10 complementary ringtones!
Tab Country
Did you know CGR has a sister site w/ country guitar tabs? Well we do! Its called Tab Country. It has a great archive with a lot of country tabs.
Rockin Tabs
Are you looking for a site that has rock guitar tabs? Then Rockintabs.com is the place for you. It is a budding site with many rock guitar tabs. Submit your tab today.
Tab Gallery
Tab Gallery has a compilation of christian, rock, and country tabs all in one place. Come visit us.