Guitar Tabs
song title    band name

Join Us Today!

Don't strum alone...
be a part of the largest online Christian music community. Browse thousands of guitar tabs and chat w/ musicians like yourself.


It's Free!

This tab has been rated a 5.00 out of 5 for accuracy. (1 vote)Sorry, but you must be logged in to rate this tab.
Click here to log-in, or you can click here to register.
(Registration is free)

All songs owned by corresponding publishing company. If you make copies of any song on this website, be sure to report your usage to CCLI.
Submitted by: Thirddayrocks21

THIRD DAY
EAGLES 
“WHEREVER YOU ARE” CD
Essential records

this tab is the whole song w/ solo
GREAT SONG AND EASY TO PLAY
ALL GUITARS HAVE CAPO ON 2ND FRET

INTRO
GUITAR 1         
                     X2                    X2
E---------------------------------------------|
B---------------------------------------------|
G-----4-x2-h4p2-2h4-2-------9-X7-h9p7-7h9-7---|
D---4-4-x2-h4p2-2h4-2-----9-9-X7-h9p7-7h9-7---|
A-2---------------------7---------------------|
E---------------------------------------------|

VERSE bm, em

1st chorus
guitar 2
E|--------------------------------------------|
B|-----3---3---3-2-------------8-----3-2------|
G|-4-4-----4-4-4-4--4-----9-9------4-4-4-4----|
D|-5-------4----------4---9--------4----------|
A|-5-------2--------------7--------2----------|
E|-3------------------------------------------|

E|--------------------------------------------|
B|-----3-----7--------8-----8----x-10---------|
G|-4-4-------7----9-9-----9------x-10---------|
D|-5---------7----9-----9--------x-10---------|
A|-5-------5------7--------------x------------|
E|-3------------------------------------------|
Guitar 2 plays
G, Bm, Em, Bm
G, D, Em, B? e|2--|
             B|2--|
             G|4--|
             D|2--|
             A|4--|
             E|2--|

2nd verse
Guitar 1 plays the intro part

Guitar 2 plays this
E|-0---0--0-----------0--0----0----------0--0---0-----0--0-0-0-0-0-0-|
B|-7-/10\-7—(7)-/10\7----7/10\7-(7)/10\7----7/8\7—-7h8---7---5---3---|
G|-------------------------------------------------------------------|
D|-------------------------------------------------------------------|
A|-------------------------------------------------------------------|
E|-------------------------------------------------------------------|




There is a third guitar that plays this ska sounding part

E|-2-x2-x2-x2--x2-x2-x2-x2---/7-x7-x7-x7—-x7-x7-x7-x7-----|
B|-3-x3-x2-x2--x3-x3-x2-x2---/8-x8-x7-x7—-x8-x8-x7-x7-----|
G|-4-x4-x4-x4--x4-x4-x4-x4---/9-x9-x9-x9—-x9-x9-x9-x9-----|
D|-4-x4-x4-x4--x4-x4-x4-x4---/9-x9-x9-x9—-x9-x9-x9-x9-----|
A|--------------------------------------------------------|
E|--------------------------------------------------------|


2ND CHORUS
G,D, EM, BM
G,D, EM, B?

THE GUITAR SOLO IS PLAYED WITHOUT A CAPO, I REALLY DON’T KNOW WHY
PERHAPS EITHER MARK OR BRAD ARE PLAYING THEIR PARTS IN STANDARD 
AND ARE IN C#M INSTEAD OF BM IN THE VERSES AND IN A INSTEAD OF G, 
WHO KNOWS UNTIL WE SEE THIS SONG LIVE.

E|----------7--------7-------------0--0---0-0-0--0-0--0-0-0-0------|
B|7--(7)^(9)---7^(9)---(9)R7--5-4----4----4H5---/4---\2---0--------|
G|------------------------------------------------------------2----|
D|-----------------------------------------------------------------|
A|-----------------------------------------------------------------|
E|-----------------------------------------------------------------|

E|---------------------9------12/----------------------------------|
B|------------12-----12----12--------12/13-\-9--\7--9--7H9---------|
G|-----9-11-9—11^(13)----------------------------------------------|
D|9H11-------------------------------------------------------------|
A|-----------------------------------------------------------------|
E|-----------------------------------------------------------------|

THAT SHOULD HELP YOU GET STARTED,ENJOY AND GOD BLESS
ALSO I AM OPEN FOR REQUESTS, JUST LET ME KNOW ON MY TAB’S COMMENTS,
I ALWAYS CHECK THEM.

Comments about this tab

sc00tereh - 2006-01-13

Pretty good tab. NOTE: Whoever plays the solo on the a song, whether it's Brad or Mark, RARELY uses a capo throughout the whole song. That's the beauty of the blend.


Add a comment/correction

Complimentary Christian Ringtones
Dadamobile and CGR have teamed up to bring your favorite Christian artists right to your phone. Sign up today and get 10 complementary ringtones!
Tab Country
Did you know CGR has a sister site w/ country guitar tabs? Well we do! Its called Tab Country. It has a great archive with a lot of country tabs.
Rockin Tabs
Are you looking for a site that has rock guitar tabs? Then Rockintabs.com is the place for you. It is a budding site with many rock guitar tabs. Submit your tab today.
Tab Gallery
Tab Gallery has a compilation of christian, rock, and country tabs all in one place. Come visit us.