Guitar Tabs
song title    band name

Join Us Today!

Don't strum alone...
be a part of the largest online Christian music community. Browse thousands of guitar tabs and chat w/ musicians like yourself.


It's Free!

This tab has been rated a 4.17 out of 5 for accuracy. (6 votes)Sorry, but you must be logged in to rate this tab.
Click here to log-in, or you can click here to register.
(Registration is free)

All songs owned by corresponding publishing company. If you make copies of any song on this website, be sure to report your usage to CCLI.
Submitted by: surferdude9375

Here Is Our King
Artist: David Crowder*Band
Album: A Collision (3+4=7)

David Verse (3rd Capo):
  	
---------------------------------
---------------------------------
------0-----0---------0-----0----
----0-----0-----0---0-----0------
--2-----2-----2---3-----3-----3--
---------------------------------

David Pre-Chorus (3rd Capo):
  	
----------------------------------------
----------------------------------------
--------0------0-----------0-----0------
------4------4------4----0-----0-----0--
--3^5------5------5----3-----3-----3----
----------------------------------------

David Chorus (3rd Capo):
  	
--3---3---3----------------
--3---3---3----------------
--0---0---0----------------
--0---0---0----------------
--x---2---3----------------
--3---x---x----------------

David Bridge (3rd Capo):
  	
--3---3---3---3---3---3-----     --3---3---3--
--3---3---3---3---3---3-----     --3---3---3--
--0---2---0---2---0---0-----     --0---2---0--
--2---0---0---2---0---0-----     --2---0---0--
--2---x---x---0---2---3-----     --2---x---x--
--0---2---3---x---x---x-----     --0---2---3-

Jack Pre-Chorus (Eb tuning):
  	
---9----------7------   --7----7----7-------7--
---0------0-----0----   ----0----0----0-----0--
--11----9---9--------   ------9----9----9---9--
---------------------   -----------------------
---------------------   -----------------------
---------------------   -----------------------

Jack Chorus (Eb Tuning):
  	
--------2-------------2-------------2-----------0----
----0-----0---0---4-----4---4---2-----2---2-4-----4--
--4---4-----4---4---4-----4---4---4-----4-----4------
-----------------------------------------------------
-----------------------------------------------------
-----------------------------------------------------

--------2-------------2-------------2---2---------7--
----0-----0---0---4-----4---4---2-----2---2-------0--
--4---4-----4---4---4-----4---4---4-----4---4-----9--
-----------------------------------------------------
-----------------------------------------------------
-----------------------------------------------------

Jack Bridge (Eb Tuning):
  	
------2-------------2-----------2--4---2--0--------0---------7-----------7----
--0-----0---0---0-----0---0---0------------------4-------0-----0-----0-----0--
1---1-----1---3---3-----3---4--------4------4--4-----4^8---8-----8^9---9-----9
------------------------------------------------------------------------------
------------------------------------------------------------------------------
------------------------------------------------------------------------------

------------14-------------------14-------------14--
------0--------0----0-----0---------0----0------0---
--13----13-------13---15----15--------15---0----16--
----------------------------------------------------
----------------------------------------------------
----------------------------------------------------

Jack Out (Eb Tuning):
  	
--------2-------------2-----------2--4---2--0-----0----   --11----7--
----0-----0---0---0-----0---0---0---------------4------   ---0----0--
--1---1-----1---3---3-----3---4--------4------4-----4--   --13----8--
-------------------------------------------------------   -----------
-------------------------------------------------------   -----------
-------------------------------------------------------   -----------

Solley Chorus (3rd Capo):
  	
(left)

----------------------------------
----------------------------------
--0------0------------------------
--0------0------------------------
--x------3------------------------
--3-------------------------------

(right)

--3----3----3----3----3----3------
--3----3----3----3----3----3------
--0----0----0----0----0----0------
----------------------------------
----------------------------------
----------------------------------

Solley Bridge (Eb Tuning) pitchshifter & octavefuzz:
  	
--------------------------------------
--------------------------------------
--------------------------------------
--------------------------------------
-----------4--6--7--11--13--16--14----
--4--6--7-----------------------------

Solley Out (Eb Tuning) pitchshifter & octafuzz:
  	
(left)

--------------------------------------
--------------3-----------3-----------
--------------0-----------0---0-------
--------------0-----------0---0-------
--------------3-----------3---x-------
--4---6---7-------4---6-------3-------

(right)

--3----3----3----3----3----3----------
--3----3----3----3----3----3----------
--0----0----0----0----0----0----------
--------------------------------------
--------------------------------------
--------------------------------------

Comments about this tab

shongsta - 2005-11-22

Im sorry but can you please explain the Eb tuning for me!? thnx!!


surferdude9375 - 2005-11-23

You normally have the strings tuned like this:
E A D G B e
Eb tuning would be like this:
Eb Ab Db Gb Bb eb

The symbol b means flat


Soul GLO Jesus - 2006-01-04

What the heck is "left" and "right"?


OneDayLessBob - 2006-01-26

the left and right is for keyboard


sixstringboots - 2006-02-23

actually i think by "left" and "right" the tabber is talking about the speaker channels. if you turn off your left speaker, you'll only hear one guitarist, and if you turn off the right, you'll hear the other.


sixstringboots - 2006-02-23

although looking back at the tab, it's not really set up that way. so i may be wrong.


Joseph352 - 2006-03-22

hey dude, this looks like the same exact tab off of the David Crowder website. I don't know if you figured all this out or what, but if you didn't and took it off his site, you really should let people know or make a link to the tab page on the site instead of making it look like that you figured it out. If you did figure it all out on your own though, great job.


Surfguy960 - 2006-05-16

hey man, great tab...i noticed you didn't have jack's part for the verses though...i could be wrong and he might not be playing anything but this has helped me so here you go...it sounds close but probably not perfect
e---------9-------7-
b---7/9\7---5/7\5--

i think it's played like four times maybe, but there's a start for you...again nice job

God bless and keep tabbin and playin for God


Oasis_guy - 2006-07-27

dude that IS the same exact tab off the david crowder website, if you're gonna post a tab make it your own not copy and paste off the artist site


3rd_day89 - 2006-08-19

this is exactly the same tab from the crowder website. christian guitar resources doesn't allow us to put up lyrics because of copyright and you just copied and paster this song. for that, i give this tab a BIG, FAT 0!! at least tell where you got it from!!!


heisouronlyhope - 2006-09-22

David has the capo on the 4th fret not 3rd look for yourself here http://youtube.com/watch?v=gImM9CUWXrE


videojon2007 - 2006-12-24

Dude just because you found a youtube video of him playing it in a diffrent key doesnt mean anything the song on the cd is capo 3 i play along with it all the time...now live he can do whatever he want i have also seen him do it capo 2 so yeah


warriormusic150 - 2007-01-05

Yeah sometimes Dadid uses Eb tunings thats why its in 4th fret


Add a comment/correction

Complimentary Christian Ringtones
Dadamobile and CGR have teamed up to bring your favorite Christian artists right to your phone. Sign up today and get 10 complementary ringtones!
Tab Country
Did you know CGR has a sister site w/ country guitar tabs? Well we do! Its called Tab Country. It has a great archive with a lot of country tabs.
Rockin Tabs
Are you looking for a site that has rock guitar tabs? Then Rockintabs.com is the place for you. It is a budding site with many rock guitar tabs. Submit your tab today.
Tab Gallery
Tab Gallery has a compilation of christian, rock, and country tabs all in one place. Come visit us.