Guitar Tabs
song title    band name

Join Us Today!

Don't strum alone...
be a part of the largest online Christian music community. Browse thousands of guitar tabs and chat w/ musicians like yourself.


It's Free!

This tab has been rated a 5.00 out of 5 for accuracy. (2 votes)Sorry, but you must be logged in to rate this tab.
Click here to log-in, or you can click here to register.
(Registration is free)

All songs owned by corresponding publishing company. If you make copies of any song on this website, be sure to report your usage to CCLI.
Submitted by: surferdude9375

Foreverandever Etc.
By: David Crowder*Band
Album: A Collision (3+4=7)

These are the guitar parts to Foreverandever Etc. played by Jack and Solley.

Jack Intro:  	
Left (capo 4):

----------------------------------
-------1--------------------------
--0----0--------------------------
--0----x--------------------------
--x----3--------------------------
--3-------------------------------

Right (capo 4):

-----------------------------------    -------------------
------------------0-0-0-0-0-0-0-0--    --0-0-0-0-0---0----
--4-0-4-0-4-0-4-0-4^5-5-5-5-5-5^7--    --4^5-5-5-5^4-2^0--
--0-0-0-0-0-0-0-0------------------    -------------------
-----------------------------------    -------------------
-----------------------------------    -------------------

Jack Verse:  	
---------------------------------
---------------------------------
---------------------------------
---------------------------------
------2-2-----2-2-----2-2----2---
--3-3-----3-3-----3-3-----3-3----

Jack Pre-Chorus  	
Left (no capo):

-2--0--2--0--0--2--0------------------
-2--0--2--0--0--2--0------------------
-3--1--3--4--6--3--1--4--6--8--11--8--
----------6--8--------6--8--9--13-9--
--------------------------------------
--------------------------------------

Right (capo 4):

--2--3--2---------   --3--3--3--3--
--3--3--3--3--3---   --3--3--3--3--
--2--0--2--0--2---   --0--0--0--0--
--0--x--0--2--0---   --0--0--0--0--
-----3-----2--0---   --x--x--x--x--
-----------0--2---   --3--3--3--3-

Jack Chorus
Left (no capo):

--0--0--0--0--0-0--0--0--0--0-0--0--0--0--
--0--0--0--0--0-0--0--0--0--0-0--0--0--0--
--8--8--8--8--8^9--9--9--9--9^8--8--8--8--
--9--9--9--9--9-9--9--9--9--9-9--9--9--9--
--x--x--x--x--x-x--x--x--x--x-x--x--x--x--
--7--7--7--7--7-7--7--7--7--7-7--7--7--7--

Right (no capo):

-----------------------
-----------------------
--4--6-----9--4-----9--
--4--6--6--9--4--4--9--
--2--4--6--7--2--4--7--
--------4--------2--0

Solley Verse:
Left (capo 4):

-------------------------
-------------------------
-------------------------
-------------------------
-------------------------
--3-3--3-3--3-3-3-3-3-3--

Right (capo 4):

--3--3--3----------------
--3--3--3----------------
--0--0--0----------------
-------------------------
-------------------------
-------------------------

Solley Pre-Chorus (no capo):
  	
-------------------------------------
-------------------------------------
-------------------------------------
-------------------------------------
--9--7--9--11--13--9--11--9--12--14--
-------------------------------------

Solley Chorus (no capo):
  	
------------------------------
------------------------------
------------------------------
--13-11-13-14-16-13-11-14-13--
------------------------------
------------------------------

Comments about this tab

surferdude9375 - 2005-11-23

As a side note just to let you know, David Crowder play a keytar on this song. At least he does live.


chronicles1289 - 2005-12-29

You might want to remind people that this is played in Eb.
I had my guitar set on standard tuning, definately threw me off.
so, tune your guitar down a step (Eb) and place capo at 4
or set it at E and place capo at 3 and figure out the non capo parts yourselves =)

great tab though

kuo


musicman1174 - 2006-02-18

tabs a bit confusing, but i'll figure it out. and yes David Crowder does play a keytar b/c i've seen him live more than once. anyway great tab all in all.


JordansFan585 - 2006-06-07

The keytar was the best part of this song. Especially the "phat beat". David is great live.


Add a comment/correction

Complimentary Christian Ringtones
Dadamobile and CGR have teamed up to bring your favorite Christian artists right to your phone. Sign up today and get 10 complementary ringtones!
Tab Country
Did you know CGR has a sister site w/ country guitar tabs? Well we do! Its called Tab Country. It has a great archive with a lot of country tabs.
Rockin Tabs
Are you looking for a site that has rock guitar tabs? Then Rockintabs.com is the place for you. It is a budding site with many rock guitar tabs. Submit your tab today.
Tab Gallery
Tab Gallery has a compilation of christian, rock, and country tabs all in one place. Come visit us.