Guitar Tabs
song title    band name

Join Us Today!

Don't strum alone...
be a part of the largest online Christian music community. Browse thousands of guitar tabs and chat w/ musicians like yourself.


It's Free!

This tab has been rated a 5.00 out of 5 for accuracy. (1 vote)Sorry, but you must be logged in to rate this tab.
Click here to log-in, or you can click here to register.
(Registration is free)

All songs owned by corresponding publishing company. If you make copies of any song on this website, be sure to report your usage to CCLI.
Submitted by: dReAmIn4EvEr

Song: Obsession
Artist: The David Crowder Band
Album: A Collision

ok this is the correct way to play and the correct
way the guitar is tuned
for David Crowders amazing song "Obession"

Tuning - Eb Ab Eb Eb Bb Eb
   let ring----|   let ring--|    let ring-------------|
Eb|------4h5p4-0---------0h2-2-2---------------------------------
Bb|--------------0----------------------5-4h5----5/7-7-----------
Eb|--------------------0-------------------------------0---------
Eb|----0-------------0--------------(0)--------------------------
Ab|--4-------------2--------------0-----------0------------------
Eb|--------------------------------------------------------------
   let ring----|   let ring--|   let ring------------|
Eb|------4h5p4-0---------0h2-2-2---------------------------------
Bb|--------------0---------------------5-4h5---5p4-2-0-----------
Eb|--------------------0-----------------------------------------
Eb|----0-------------0-------------(0)---------------------------
Ab|--4-------------2-------------0-----------0-------------------
Eb|--------------------------------------------------------------

Enjoy..and always do it for the One who saves. 
Later

Comments about this tab

HarrisonBRO - 2006-04-05

This is (finally) the correct tuning, but this is only the verse.
The chorus goes like this:

A B E
And my heart burns for you
A B E
And my heart burns for you

...with these chords shapes:
A - 570000
B - 790000
E - 070000
(these chords are for the correct Eb Ab Eb Eb Bb Eb tuning - don't try and play this song in any other tuning!)


Glo17 - 2006-09-30

The chorus is correct,except that E supose to be an E/G#..so that makes it 470000 E/G# other than that sounds good!


Add a comment/correction

Complimentary Christian Ringtones
Dadamobile and CGR have teamed up to bring your favorite Christian artists right to your phone. Sign up today and get 10 complementary ringtones!
Tab Country
Did you know CGR has a sister site w/ country guitar tabs? Well we do! Its called Tab Country. It has a great archive with a lot of country tabs.
Rockin Tabs
Are you looking for a site that has rock guitar tabs? Then Rockintabs.com is the place for you. It is a budding site with many rock guitar tabs. Submit your tab today.
Tab Gallery
Tab Gallery has a compilation of christian, rock, and country tabs all in one place. Come visit us.