Guitar Tabs
song title    band name

Join Us Today!

Don't strum alone...
be a part of the largest online Christian music community. Browse thousands of guitar tabs and chat w/ musicians like yourself.


It's Free!

This tab has been rated a 3.00 out of 5 for accuracy. (3 votes)Sorry, but you must be logged in to rate this tab.
Click here to log-in, or you can click here to register.
(Registration is free)

All songs owned by corresponding publishing company. If you make copies of any song on this website, be sure to report your usage to CCLI.
Submitted by: Minstrel_Man_7

Although I have submitted chords on this site before, I have never written tabs,
so bear with me.  Chords are listed normally, and tabs are outlined by a box. 
It's really drawn out just because if you're playing the song I find it much
easier to not have to scroll back up and read the first parts of the song.

INTRO PART 1 (repeat 4x)
____________________________________
                                    |
E  -------2---0--475------2---0-000 |
B  -2-23--------------23----------- |
G  -------------------------------- |
D  0-0--00-000-00---00--00-000-0--- |
____________________________________|

INTRO PART 2 (repeat 2x)
______________________________________________________________________
                                                                      |
E  -------2---0-----------2---0-000  -------2---0-----------2---00000 |
B  ---23---------23---23-----------  ---23---------23---23----------- |
G  ------2---0-----------2---0-----  ------2---0-----------2---0----- |
D  020--0--04--02--020--0--04------  020--0--04--02--020--0--04------ |
______________________________________________________________________|

VERSE

D G D
C G A(11) A
D G D
C G A(11) A

BRIDGE

G A D C

CHORUS

D G 
C G
____________________________________
                                    |
E  -------2---0-----------2---00000 |
B  ---23---------23---23----------- |
G  ------2---0-----------2---0----- |
D  020--0--04--02--020--0--04------ |
____________________________________|

G C G

IN BETWEEN CHORUS AND VERSE 2
____________________________________
                                    |
E  -------2---0-----------2---00000 |
B  ---23---------23---23----------- |
G  ------2---0-----------2---0----- |
D  020--0--04--02--020--0--04------ |
____________________________________|

VERSE 2

D G D
C G A(11) A
D G D
C G A(11) A

BRIDGE

G A D C

CHORUS

D G
C G 
____________________________________
                                    |
E  -------2---0-----------2---00000 |
B  ---23---------23---23----------- |
G  ------2---0-----------2---0----- |
D  020--0--04--02--020--0--04------ |
____________________________________|

G C A
____________________________________
                                    |
E  -------2---0-----------2---00000 |
B  ---23---------23---23----------- |
G  ------2---0-----------2---0----- |
D  020--0--04--02--020--0--04------ |
____________________________________|

G C A

BRIDGE

G A D G
G A D C

CHORUS
on the first 2 lines of the chorus it is ocapella (there is no guitar)

C G
____________________________________
                                    |
E  -------2---0-----------2---00000 |
B  ---23---------23---23----------- |
G  ------2---0-----------2---0----- |
D  020--0--04--02--020--0--04------ |
____________________________________|

G C G

FINALE
_____________________________________________________________________
                                                                     |
E  -------2---0-----------2---0-000-------2---0-----------2---0----2 |
B  ---23---------23---23--------------23---------23---23---------233 |
G  ------2---0-----------2---0-----------2---0-----------2---0-----2 |
D  020--0--04--02--020--0--04------020--0--04--02--020--0--04--02--0 |
_____________________________________________________________________|




Comments about this tab

Minstrel_Man_7 - 2006-04-29

For the chords 3 corrections: first, the A(11) on the verse should be an Asus.
Second, The D on the bridge should be a Bm. Also, play powerchords on the chorus.
As for the tabs, they're not the way Switchfoot actually plays them, but they're in a simpler format to make it easier to play but still give it a similar sound.


Add a comment/correction

Complimentary Christian Ringtones
Dadamobile and CGR have teamed up to bring your favorite Christian artists right to your phone. Sign up today and get 10 complementary ringtones!
Tab Country
Did you know CGR has a sister site w/ country guitar tabs? Well we do! Its called Tab Country. It has a great archive with a lot of country tabs.
Rockin Tabs
Are you looking for a site that has rock guitar tabs? Then Rockintabs.com is the place for you. It is a budding site with many rock guitar tabs. Submit your tab today.
Tab Gallery
Tab Gallery has a compilation of christian, rock, and country tabs all in one place. Come visit us.