Guitar Tabs
song title    band name

Join Us Today!

Don't strum alone...
be a part of the largest online Christian music community. Browse thousands of guitar tabs and chat w/ musicians like yourself.


It's Free!

This tab has not yet been rated for accuracy.Sorry, but you must be logged in to rate this tab.
Click here to log-in, or you can click here to register.
(Registration is free)

All songs owned by corresponding publishing company. If you make copies of any song on this website, be sure to report your usage to CCLI.
Notes I Forget
By Hibiscusbloom
CD: Hibiscusbloom
c1998 Hibiscusbloom
Tab by Steve Cruickshank
Postlambjam@hotmail.com


Intro:
   C#m7  A2  C#m7  Bsus (palm-muted)    C#m7  A2  Eno3  Emaj7


C#m7            A2               E             Bsus
Curl up in your sleeping bag and wipe away the salt
C#m7                  A2             E    Bsus
Comes from a murmured word you heard, the pain runs
C#m7            A2            E             Bsus
Out of context, out of place, out of character from her
C#m7    A2           E      Bsus
Did she mean those mean words


Chorus:
G#m        A             Eno3    Bsus
Summertime warmth in the dead of winter
G#m           A      Eno3     Bsus
Love can melt away a frozen facade
G#m        A             Eno3    Bsus
Summertime warmth in the dead of winter
G#m            A          Eno3       Bsus
Show them some kindness a touch from God


Verse 2:
Your bones are dried up so to speak
It’s not selfishness because you need a freshening
Phrase, rhyme or line, do you feel fine
Sometimes simple kindness soothes the soul

[chorus]

Bridge 1:
Eno3   A2       Emaj7   A2
He can help you, he can heal you
Eno3   A2       Emaj7   A2
He can help you, he can heal you


Bridge 2:
F#m                        A2         Bsus
And in the night wind, the voice of freedom calls
F#m                      A2     Bsus      E   A2  Bsus  A2  E  A2  Bsus  A2
He knows all your wounds and covers over them all

Bridge 3:
E                    A2         Bsus       A2
It’s the language of love, the language of God
E                    A2          Bsus       A2
It’s the language of love, spoke brother to sister
E                    A2          Bsus          A2
It’s the language of love, letĘs care for each other
E                    A2          Bsus        A2
It’s the language of love, start loving each other


Solo:
e-----------------------------------------------------------
B-------------------------------------------------9-10--9---
G-8-9--/11-9-8-9--8-9--/11-9-8-9--8-9--/11-9-8-9------------
D-----------------------------------------------------------
A-----------------------------------------------------------
E-----------------------------------------------------------
·	Eno3  A2        Emaj7 A2        Eno3  A2        Emaj7 A2



Bridge 1 again with solo:
e--------------------------------------------------------------------------
B-9-10--/12-10-9-10---9-10--/12-10-9-10---9-10--/12-10-9-10---9-10---------
G-------------------------------------------------------------------11-9---
D--------------------------------------------------------------------------
A--------------------------------------------------------------------------
E--------------------------------------------------------------------------
·	Eno3   A2           Emaj7  A2           Eno3   A2           Emaj7 A2


[chorus]

Ending:
e---0--0--0--0---------------------12--11-9-----------
B---0--0--0--0----9-10-12-10-9------0-------12-10-9---
G---1--2--4--2----9------------9---13-----------------
D---2--2--4--2----9-----------------------------------
A---2--0--2--0----0-----------------------------------
E---0-------------------------------------------------

Chords:
Eno3   079900
E      022100
Emaj7  069800
Bsus   x24400 or 799800
A2     x02200 or 577600 or x07600
C#m7   x46600
G#m    x66400
F#m    244222

Comments about this tab

No comments/corrections found. Add your own

Complimentary Christian Ringtones
Dadamobile and CGR have teamed up to bring your favorite Christian artists right to your phone. Sign up today and get 10 complementary ringtones!
Tab Country
Did you know CGR has a sister site w/ country guitar tabs? Well we do! Its called Tab Country. It has a great archive with a lot of country tabs.
Rockin Tabs
Are you looking for a site that has rock guitar tabs? Then Rockintabs.com is the place for you. It is a budding site with many rock guitar tabs. Submit your tab today.
Tab Gallery
Tab Gallery has a compilation of christian, rock, and country tabs all in one place. Come visit us.