Guitar Tabs
song title    band name

Join Us Today!

Don't strum alone...
be a part of the largest online Christian music community. Browse thousands of guitar tabs and chat w/ musicians like yourself.


It's Free!

This tab has been rated a 4.67 out of 5 for accuracy. (6 votes)Sorry, but you must be logged in to rate this tab.
Click here to log-in, or you can click here to register.
(Registration is free)

All songs owned by corresponding publishing company. If you make copies of any song on this website, be sure to report your usage to CCLI.
Submitted by: bigrockj26

Artist: Chris Tomlin
Song: Your Grace Is Enough
Album: Awakenings

Play these chords over the intro.
A A/C# D2 F#m7 E D2 

Intro
e:------------------------------------------------------------------------------
B:10-10-10-10-10-9-9-10-10-12-12-9-9-10-10-10-10-9-9-7-7-5-5-/10-9-9-10-10-12-12
G:9--9--9--9--9--9-9-9--9--9--9--9-9-9--9--9--9--9-9-7-7-7-7-/9--9-9-9--9--9--9-
D:------------------------------------------------------------------------------
A:------------------------------------------------------------------------------
E:------------------------------------------------------------------------------

e:------------------------------------------------------------------------------
B:10-10-10-10-10-9-9-10-10-12-12-9-9-10-10-15-15-15-15-15-14-14-14-14-15-15-15--
G:9--9--9--9--9--9-9-9--9--9--9--9-9-9--9--14-14-14-14-14-14-14-14-14-14-14-14--
D:------------------------------------------------------------------------------
A:------------------------------------------------------------------------------
E:------------------------------------------------------------------------------

e:------------------------------------------------------------------------------
B:-15-15-14---------------------------------------------------------------------
G:-14-14-14---------------------------------------------------------------------
D:------------------------------------------------------------------------------
A:------------------------------------------------------------------------------
E:------------------------------------------------------------------------------

Verse Chords x2:

A A/C# D2 F#m7 E D2 

Pre-Chorus:

Bm7 A/C# D2 E F#m7 A D2

Little riff played by the electric right before chorus.

e:------------------------------------------------------------------------------
B:-xxxx-5-5-xxxx-5-5-xxxx-7-7-/9999999------------------------------------------
G:-xxxx-6-6-xxxx-7-7-xxxx-7-7-/9999999------------------------------------------
D:------------------------------------------------------------------------------
A:------------------------------------------------------------------------------
E:------------------------------------------------------------------------------

Chorus Chords:  

A E F#m7 D2 A E D2

Electric Chorus Chords:
    A       E       F#m7    D2  
e:------------------------------------------------------------------------------
B:--10------12------14------9---------------------------------------------------
G:--9-------9-------11------7---------------------------------------------------
D:--7-------9-------11------7---------------------------------------------------
A:------------------------------------------------------------------------------
B:------------------------------------------------------------------------------

After the 2nd Chorus this riff is played again.
e:------------------------------------------------------------------------------
B:-xxxx-5-5-xxxx-5-5-xxxx-7-7-/9999999------------------------------------------
G:-xxxx-6-6-xxxx-7-7-xxxx-7-7-/9999999------------------------------------------
D:------------------------------------------------------------------------------
A:------------------------------------------------------------------------------
E:------------------------------------------------------------------------------

Also after the second chorus it goes into the Pre-chorus again. And then the 
electric drops out and then an only acoustic chorus is played and at the end of 
the second acoustic chorus this riff is played again.
e:------------------------------------------------------------------------------
B:-xxxx-5-5-xxxx-5-5-xxxx-7-7-/9999999------------------------------------------
G:-xxxx-6-6-xxxx-7-7-xxxx-7-7-/9999999------------------------------------------
D:------------------------------------------------------------------------------
A:------------------------------------------------------------------------------
E:------------------------------------------------------------------------------

Then the chorus is played i think 4 times and then it goes back to the intro 
and the song ends there.

Intro       X1
Verse       X2
Pre-chorus  X1
Chorus      X1
Verse       X2
Chorus      X2
Pre-chorus  X1
Chorus      X2-No electric
Chorus      X4
Intro       X1




Comments about this tab

strathero - 2006-09-16

This Is one of Chris tomlins best songs. almost completly accurate.


ddrandguitar03 - 2007-09-09

Actually, Matt Maher is the author of this song. You can see a great video of both of them demonstrating how to play the song on youtube. the link is http://www.youtube.com/watch?v=QIgGHA27nG4 Man, I love this song :)


Add a comment/correction

Complimentary Christian Ringtones
Dadamobile and CGR have teamed up to bring your favorite Christian artists right to your phone. Sign up today and get 10 complementary ringtones!
Tab Country
Did you know CGR has a sister site w/ country guitar tabs? Well we do! Its called Tab Country. It has a great archive with a lot of country tabs.
Rockin Tabs
Are you looking for a site that has rock guitar tabs? Then Rockintabs.com is the place for you. It is a budding site with many rock guitar tabs. Submit your tab today.
Tab Gallery
Tab Gallery has a compilation of christian, rock, and country tabs all in one place. Come visit us.