Guitar Tabs
song title    band name

Join Us Today!

Don't strum alone...
be a part of the largest online Christian music community. Browse thousands of guitar tabs and chat w/ musicians like yourself.


It's Free!

This tab has been rated a 5.00 out of 5 for accuracy. (4 votes)Sorry, but you must be logged in to rate this tab.
Click here to log-in, or you can click here to register.
(Registration is free)

All songs owned by corresponding publishing company. If you make copies of any song on this website, be sure to report your usage to CCLI.
Submitted by: Cheese_Monkey

song: stars and stripes
artist: olivia the band

hey guys the other tab on here had some vital flaws, so i'm here to fix them up
for you guys! the first problem is, yes, you guessed it, the intro!

Intro:

D----4---4------4---4---
A-2-2-2-2-2-2--2-2-2-2-2 repeat as nessisary.
E-----------------------

and here comes the cool awsome solo! (took me like 2 hours to get this down)

e-----------------------------------------------------
B-----------------------------------------------------
G-----------------------------------------------7-----
D---5-4-0-5-4-5-4-5-7-5-4--5-4-0-5-4-------5-7-9-7-55-
A-3-----------------------3----------5-7--7-----------
E-----------------------------------------------------

e-----------------------------------------12---12---12-----------------
B--8-7--8-7-7h8p7-7h10p7-7h8p7-7h10p7--12*--12---12----12--10s8s7---8-7
G-7---7----------------------------------------------------------------
D----------------------------------------------------------------------
A----------------------------------------------------------------------
E----------------------------------------------------------------------

* the 12 there should be really an 11 bended into a 12, it sounds better,
but it's much trickier to do! use it depending on your skill level.

well there ya have it! i love this band, they're way underrated, anyhoo, God
bless, keep on rockin'!

Tim (Cheese Monkey)

Comments about this tab

3rd Bassman - 2006-08-11

good... but you should update the chords that need to be fixed too


Add a comment/correction

Complimentary Christian Ringtones
Dadamobile and CGR have teamed up to bring your favorite Christian artists right to your phone. Sign up today and get 10 complementary ringtones!
Tab Country
Did you know CGR has a sister site w/ country guitar tabs? Well we do! Its called Tab Country. It has a great archive with a lot of country tabs.
Rockin Tabs
Are you looking for a site that has rock guitar tabs? Then Rockintabs.com is the place for you. It is a budding site with many rock guitar tabs. Submit your tab today.
Tab Gallery
Tab Gallery has a compilation of christian, rock, and country tabs all in one place. Come visit us.