Guitar Tabs
song title    band name

Join Us Today!

Don't strum alone...
be a part of the largest online Christian music community. Browse thousands of guitar tabs and chat w/ musicians like yourself.


It's Free!

This tab has not yet been rated for accuracy.Sorry, but you must be logged in to rate this tab.
Click here to log-in, or you can click here to register.
(Registration is free)

All songs owned by corresponding publishing company. If you make copies of any song on this website, be sure to report your usage to CCLI.
Submitted by: rom_831

Title:   Enough to Love
Artist:  The Choir 
Album:   Oh How The Mighty Have Fallen
Author:  Steve Hindalong and Derri Daugherty 
 2005 Galaxy 21 Music


The chords on this song are particularly confusing due to the 
meandering bass playing of Tim Chandler.  This tab is made to
reflect the rhythm guitar only, and not to show the harmonic 
movement provided by Chandler.


 Chords

   F#  B  Bmaj7   C#  G#(3)  G#   B(3)  B/Eb   Eb
E----------------------------------------------------------------
B----------------------------------------------------------------
G-------4--3-------6--------------------4------8-----------------
D---4---4--4-------6---6-----6----9-----4------8-----------------
A---4---2--2-------4---3-----6----6-----6------6-----------------
E---2------------------4-----4----7------------------------------



Intro  (2x)


      
E-------------------------------------------------------------
B-------------------------------------------------------------
G-------------------------------------------------------------
D----4-4-4-4-4-4-4-4------------------------------------------
A----4-4-4-4-4-4-4-4-6-6-4-4----------------------------------
E----2-2-2-2-2-2-2-2-2-2-2-2----------------------------------



When the vocals come in you play an F# power chord as shown above
and then a B to Bmaj7 and back to B


The next part

C#   B/Eb    F# (2x)

G#(3)   B(3)    F#


Verse

F#   B-Bmaj7-B



Chorus

C#  Eb  B  (3x)

G#(3)  B(3)  (2x)   F#


Bridge

B   G#   B    C#   B   G#    F#




Verse


Chorus



Listen for timing.


Submitted by Adam Wickens
rom_831@hotmail.com

Comments about this tab

No comments/corrections found. Add your own

Complimentary Christian Ringtones
Dadamobile and CGR have teamed up to bring your favorite Christian artists right to your phone. Sign up today and get 10 complementary ringtones!
Tab Country
Did you know CGR has a sister site w/ country guitar tabs? Well we do! Its called Tab Country. It has a great archive with a lot of country tabs.
Rockin Tabs
Are you looking for a site that has rock guitar tabs? Then Rockintabs.com is the place for you. It is a budding site with many rock guitar tabs. Submit your tab today.
Tab Gallery
Tab Gallery has a compilation of christian, rock, and country tabs all in one place. Come visit us.