Guitar Tabs
song title    band name

Join Us Today!

Don't strum alone...
be a part of the largest online Christian music community. Browse thousands of guitar tabs and chat w/ musicians like yourself.


It's Free!

This tab has been rated a 4.67 out of 5 for accuracy. (3 votes)Sorry, but you must be logged in to rate this tab.
Click here to log-in, or you can click here to register.
(Registration is free)

All songs owned by corresponding publishing company. If you make copies of any song on this website, be sure to report your usage to CCLI.
Submitted by: I Am THE Hunter

Song: The Best of Times
Artist: Staple
Album: Of Truth and Reconciliation
Tuning: CGCFAD
Tabber: Antifire03@yahoo.com

Intro/Outro
D: 0-0--0-3-0--|2x|-----5--0---0----|2x|
A: 1-1--1-1-1--|2x|--1-------3---3--|2x|
F: 2-2--2-2-2--|2x|--2--------------|2x|
C: 3------3----|2x|--2--------------|2x|

C:333---333---779-10109
G:333---333---777--7-77
C:333---333---777--7-77

Lead:
F:12121212----14141414-----7777----7/9999

F:12121212----14141414-----17/16161616----9999

Verse: 
A: 8--8-8-8--8-8--------------------------
F: 9--9-9-9--9-9-------------------------
C: 10-101010-1010---7777333355550000
G: 7----------------7777333355550000
C: 7----------------7777333355550000

Prechorus/Chorus (palm mute the chords for the prechorus)
F: ----------1010101010------|2x|-------101010------|2x|
C: 777-999---7--7-7--7-7-77--|2x|---3----------77---|2x|
G: 777-777---------------77--|2x|---3---------------|2x|
C: 777-777---------------77--|2x|---3---------------|2x|

F: -------101010--------------
C: 5---------------77----5----
G: 5---------------------5----
C: 5---------------------5----

Pre-verse
C: 7----/7----5----3---2-2h3p2--2-2b
G: 7--------------------------------
C: 7--------------------------------

End of Second Chorus
A: ----101010-----------101010-----------|--------------------
F: ----------777--------------777--------|10101012121216161616
C: 5----------------5--------------------|--------------------
G: 5----------------5--------------------|--------------------
C: 5----------------5--------------------|--------------------

Solo
F:/14----14---14p12p10/9-9h10p9h10p9---9-9---10-10

F: /9--/5--/9---9--12-p10-p9--9--/9--/5--/9--9--16----12----9----16--159

D:8888888888888
A:9999999999999
F:7777777777777

Guitar2 with effect
A:9999999999999

Bridge
C: 7777333355550000
G: 7777333355550000
C: 7777333355550000

Outro
C:7757-xxx5--757p0
G:7757-xxx5--757p0
C:7757-xxx5--757p0 

Comments about this tab

I Am THE Hunter - 2005-11-04

Man, Symbiotic(admin) got this up quick. ROCK ON!

Only correction

The end of the 2nd chorus should be

101010121212141414/


Add a comment/correction

Complimentary Christian Ringtones
Dadamobile and CGR have teamed up to bring your favorite Christian artists right to your phone. Sign up today and get 10 complementary ringtones!
Tab Country
Did you know CGR has a sister site w/ country guitar tabs? Well we do! Its called Tab Country. It has a great archive with a lot of country tabs.
Rockin Tabs
Are you looking for a site that has rock guitar tabs? Then Rockintabs.com is the place for you. It is a budding site with many rock guitar tabs. Submit your tab today.
Tab Gallery
Tab Gallery has a compilation of christian, rock, and country tabs all in one place. Come visit us.