Guitar Tabs
song title    band name

Join Us Today!

Don't strum alone...
be a part of the largest online Christian music community. Browse thousands of guitar tabs and chat w/ musicians like yourself.


It's Free!

This tab has not yet been rated for accuracy.Sorry, but you must be logged in to rate this tab.
Click here to log-in, or you can click here to register.
(Registration is free)

All songs owned by corresponding publishing company. If you make copies of any song on this website, be sure to report your usage to CCLI.
Fickle
Hibiscusbloom
CD: Hibiscusbloom
C1998 Hibiscusbloom
Tab by Steve Cruickshank
Postlamjam@hotmail.com


Intro:
e--------------------------------
B--------------------------------
G--9-9---9-9---5-5---7-7---------
D--9-9---9-9---5-5---7-7---------
A--7-7---7-7---3-3---5-5---------
E--------------------------------

e----------------------------------------------------
B----------------------------------------------------
G----------------------------5-5-5b7r5---7-7-7b9r7---
D--7-7-7-6-/9---7-7-7-6-/9---5-5---------7-7---------
A----------------------------3-3---------5-5---------
E--5-5-5-4-/7---5-5-5-4-/7---------------------------

e-----------------------------------
B-----------------------------------
G-----------------------------------
D-----------------------------------
A--2-2------2-2------2-2------2-2---
E--0-0--3-2-0-0--3-2-0-0--3-2-0-0---



Verse:
e-----------------------------
B-----------------------------
G-----------------5-5---7-7--- (x3)
D-----------------5-5---7-7---
A--2-2------2-2---3-3---5-5---
E--0-0--3-2-0-0---------------
---E              C     D

e------------------------------------
B------------------------------------
G----------------------0--------0----
D--------------------2---2----4---4--
A---2-2------2-2---3--------5--------
E---0-0--3-2-0-0---------------------
----E              C*       D*


E         C             D                   E
And they, never say the things they want to say
C          D              E
Orbiting intentions every day
C                 D                 E     C*  D*
Knowing that they have the proof of truth
E       C             D          E
And we, bask in our melodic harmony
C                D                    E
Sure that by his grace we've been set free
C              D            E    C*  D*
Never speak so we don't disagree


Prechorus:
C#m                 G#m               A               E
At times we see the danger there, but we just sit and stare
C#m           G#m          A                E    B
All the while we aspire to set the world on fire


Chorus:
E                        A          B
We're so fickle bout the right time baby
E                        A          B
We're so fickle bout the right time yeah


Verse 2:
You, say you'll tell them if they ask you to
But don't join in when questions start to brew
Then they come and you go I don't know
And I pray for witness moments You'll provide
But when they come inside I run and hide
God bless you today then walk away


Bridge:
E
You know I should be Sharing like Lois and Bram
A
I reach into my pocket pull an empty hand
B             A
Master saver, penny glasses
B                      A
Wipe off the specs for sight to masses
E
The excuse I seek is like a verbal island
A
I've got to start to swim before they think I'm trying
B                    A
I can't give up so I won't give in
B               A
I found myself alone again

Comments about this tab

No comments/corrections found. Add your own

Complimentary Christian Ringtones
Dadamobile and CGR have teamed up to bring your favorite Christian artists right to your phone. Sign up today and get 10 complementary ringtones!
Tab Country
Did you know CGR has a sister site w/ country guitar tabs? Well we do! Its called Tab Country. It has a great archive with a lot of country tabs.
Rockin Tabs
Are you looking for a site that has rock guitar tabs? Then Rockintabs.com is the place for you. It is a budding site with many rock guitar tabs. Submit your tab today.
Tab Gallery
Tab Gallery has a compilation of christian, rock, and country tabs all in one place. Come visit us.