Guitar Tabs
song title    band name

Join Us Today!

Don't strum alone...
be a part of the largest online Christian music community. Browse thousands of guitar tabs and chat w/ musicians like yourself.


It's Free!

This tab has been rated a 5.00 out of 5 for accuracy. (2 votes)Sorry, but you must be logged in to rate this tab.
Click here to log-in, or you can click here to register.
(Registration is free)

All songs owned by corresponding publishing company. If you make copies of any song on this website, be sure to report your usage to CCLI.
Submitted by: punkishnate

Note To Moderater: I am aware that this solo is already on the site, and i am 
positive that this is the correct way to play it and i've gone over the 
other submissions carefully and they are not correct, (not to sound cocky). So 
this is why i am posting it even though it's already up.

Artist: Hillsong - United Live
Album:  To The Ends Of The Earth
Title:  To The Ends Of The Earth
Type:   Lead Guitar (Solo)
Tabbed by Nate Burow

/ = slide
h = hammer on
* = harmonic

E----------------------------------14h1515-12h1414-10h1212-
B--------78-----------7-7/121210-10------------------------
G-7/9-9-9--7------7-9--------------------------------------
D-----------777/99-----------------------------------------
A----------------------------------------------------------
E----------------------------------------------------------

E------------------------------------------------------------
B-10h12-1210-----------------------*7--*9---10/12-10/14-14-14
G-----------1212/14--------------11--------------------------
D------------------12-12-12/14-14--------*7------------------
A------------------------------------*7----------------------
E------------------------------------------------------------
(As with almost all tabs listening to the song to get the timing of the notes 
is necessary)

I would probably bet my life that his is 100% correct, but
if there are any problems then feel free to take matters into your own hands

Comments about this tab

punkishnate - 2006-01-25

I've always played it right... I just accidently tabbed a few notes wrong...
Here's the correct version, sorry guys.

E----------------------------------14h1515-12h1414-10h1212-
B--------78-----------8-8/121210-10------------------------
G-7/9-9-9--7------7-9--------------------------------------
D-----------777/99-----------------------------------------
A----------------------------------------------------------
E----------------------------------------------------------

E------------------------------------------------------------
B-10h12-1210-----------------------*7--*9---10/12-10/15-15-15
G-----------1212/14--------------11--------------------------
D------------------12-12-12/14-14--------*7------------------
A------------------------------------*7----------------------
E------------------------------------------------------------


wdougall - 2006-02-04

Hey guys..this is how i did the solo on guitar pro 5.0. It is extremely accurate. Enjoy and God bless!

E Q Q E E E H Q E E
E||--------------------------|-------------------------|
B||--------------------7--8--|-------------------------|
G||--7s--9~----L----L--------|--7~--------L------------|
D||--------------------------|-----------------7s--12--|
A||--------------------------|-------------------------|
E||--------------------------|-------------------------|


Q Q Q Q E S S E E E Q E
--------------------------|---------------------------------|
--------------------8~----|--12--12-12-12--10--10~--L----L--|
--------7~----9~----------|---------------------------------|
--9~----------------------|---------------------------------|
--------------------------|---------------------------------|
--------------------------|---------------------------------|


S E S S E S S E S S E S E E E E E E E E
--12s-15-----------------------------------|-------------------------------|
------------15s-17----12s-15----10s-12~--L-|---L--10--8--10----------------|
-------------------------------------------|--------------------7--7s--9~--|
-------------------------------------------|-------------------------------|
-------------------------------------------|-------------------------------|
-------------------------------------------|-------------------------------|


E Q Q Q E E Q Q Q E
-------------------------------|---------------------------|
-------------------------------|-----15~----15~------------|
--L--11~----12~----14~----16~--|--L------------------------|
-------------------------------|---------------------------|
-------------------------------|---------------------------|
-------------------------------|---------------------------|


Q E Q E E E 4x
|--------------------------||
|---8----7--5----3--5--7---||
|*------------------------*||
|*------------------------*||
|--------------------------||
|--------------------------||




Duration Legend
---------------
W - whole
H - half
Q - quarter
E - 8th
S - 16th
T - 32nd
X - 64th
. - note dotted
|-n-| - n-tuplets


Tablature Legend
----------------
L - tied note(i.e simply hold note that comes before it until next note)
x - dead note
g - grace note
(n) - ghost note
> - accentuded note
NH - natural harmonic
AH - artificial harmonic
TH - tapped harmonic
SH - semi harmonic
PH - pitch harmonic
h - hammer on
p - pull off
b - bend
br - bendRelease
pb - preBend
pbr - preBendRelease
brb - bendReleaseBend
\n/ - tremolo bar dip
\n - tremolo bar dive
-/n - tremolo bar Release up
/n\ - tremolo bar inverted dip
/n - tremolo bar return
-\n - tremolo bar Release down
S - shift slide
s - legato slide
/ - slide into from below or out of upwards
\ - slide into from above or out of downwards
~ - vibrato
W - wide vibrato
tr - trill
TP - tremolo picking
T - tapping
S - slap
P - pop
< - fade in
^ - brush up
v - brush down


punkishnate - 2006-02-10

close, but it's a little off


swimmer009 - 2006-02-18

hey man looks like a great solo i havet tried it but i will soon


Add a comment/correction

Complimentary Christian Ringtones
Dadamobile and CGR have teamed up to bring your favorite Christian artists right to your phone. Sign up today and get 10 complementary ringtones!
Tab Country
Did you know CGR has a sister site w/ country guitar tabs? Well we do! Its called Tab Country. It has a great archive with a lot of country tabs.
Rockin Tabs
Are you looking for a site that has rock guitar tabs? Then Rockintabs.com is the place for you. It is a budding site with many rock guitar tabs. Submit your tab today.
Tab Gallery
Tab Gallery has a compilation of christian, rock, and country tabs all in one place. Come visit us.