Guitar Tabs
song title    band name

Join Us Today!

Don't strum alone...
be a part of the largest online Christian music community. Browse thousands of guitar tabs and chat w/ musicians like yourself.


It's Free!

This tab has not yet been rated for accuracy.Sorry, but you must be logged in to rate this tab.
Click here to log-in, or you can click here to register.
(Registration is free)

All songs owned by corresponding publishing company. If you make copies of any song on this website, be sure to report your usage to CCLI.
Submitted by: joellaw44

Speak Your Mind - Guitar Solo

The other two solo tabs were close, but were missing some of the bends 
and stuff.

Drop D, Tune down 1 step  C G C F A D

|-----------------------------|
|-----------------------------|
|-----------------------------|
|-8-8-8-8-8-10-10-10-10-10-10-|
|-8-8-8-8-8-10-10-10-10-10-10-|
|-8-8-8-8-8-10-10-10-10-10-10-|
|
| Gtr II
|-----------------------------|
|-----------------------------|
|-----------------------------|
|-----------------------10----|
|-----------------10h12-------|
|-----------------------------|


 Guitar Solo
|--------------------------------------|
|--------------------------------------|
|--------------------------------------|
|--0---------0---0---0-0-0--0--0-0-0-0-|
|--0---------0---0---0-0-0--0--0-0-0-0-|
|--0---------0---0---0-0-0--0--0-0-0-0-|
|
|--------------------------------------|
|--------------------------------------|
|-----------------------------10-------|
|-10h12-(12)---(12)-12-----12----------|
|--------------------------------------|
|--------------------------------------|


|-------------------------------------------------|
|-------------------------------------------------|
|-------------------------------------------------|
|-10------10-10----10-10------10-10--10--10-10-10-|
|-10------10-10----10-10------10-10--10--10-10-10-|
|-10------10-10----10-10------10-10--10--10-10-10-|
|
|-------------------------------------------------|
|-------------------------------------------------|
|--9h10p9-----9h10-12----(12)----10-(10)-10-12-10-|
|---------10--------------------------------------|
|-------------------------------------------------|
|-------------------------------------------------|


|-------------------------------------------------------------------------|
|-------------------------------------------------------------------------|
|-------------------------------------------------------------------------|
|--5--------------5---5--------5--5----------------5-----5-----5--5--5--5-|
|--5--------------5---5--------5--5----------------5-----5-----5--5--5--5-|
|--5--------------5---5--------5--5----------------5-----5-----5--5--5--5-|
|
|-------------------------------------------------------------------------|
|-------------15-----13p10----10------------------------------------10h13-|
|-12b14==(12)----12r-------12----12b14==(12)r(12)p10----10----10h12-------|
|----------------------------------------------------12----12-------------|
|-------------------------------------------------------------------------|
|-------------------------------------------------------------------------|


|-----------------------------------------------------------------|
|-----------------------------------------------------------------|
|-----------------------------------------------------------------|
|--8----------8-----8-----8--8----------10-10----10--10-----10-10-|
|--8----------8-----8-----8--8----------10-10----10--10-----10-10-|
|--8----------8-----8-----8--8----------10-10----10--10-----10-10-|
|
|------------------------13-15b17==(15)-15-15-15-15r(15)p13----13-|
|-13-13-15p13------13-15------------------------------------15----|
|---------------14------------------------------------------------|
|-----------------------------------------------------------------|
|-----------------------------------------------------------------|
|-----------------------------------------------------------------|


|---------------------------------------|
|---------------------------------------|
|---------------------------------------|
|--0------0-0--0-0--0--0-----0-0--0--0--|
|--0------0-0--0-0--0--0-----0-0--0--0--|
|--0------0-0--0-0--0--0-----0-0--0--0--|
|
|-10-----10---10---10-10-10-10---10-10--|
|-13b15==13---13---13-13-13-13---13-13r-|
|---------------------------------------|
|---------------------------------------|
|---------------------------------------|
|---------------------------------------|


|------------------------------------------|
|------------------------------------------|
|------------------------------------------|
|-10-----10-10-10-10-10-10----10-10-10--10-|
|-10-----10-10-10-10-10-10----10-10-10--10-|
|-10-----10-10-10-10-10-10----10-10-10--10-|
|
|-12-----12----12----12-12-12-12----12-----|
|-15b17==15----15----15-15-15-15----15r-15-|
|------------------------------------------|
|------------------------------------------|
|------------------------------------------|
|------------------------------------------|


|-----------------------------------------------------------------|
|-----------------------------------------------------------------|
|-----------------------------------------------------------------|
|--5-------------5-----5-----5--5-----5--5--------5--5---5------5-|
|--5-------------5-----5-----5--5-----5--5--------5--5---5------5-|
|--5-------------5-----5-----5--5-----5--5--------5--5---5------5-|
|
|--------------------------------------------------------------10-|
|-15b17-15-13h15p==13-13s10---------------------------------------|
|---------------------------12p10-12-10-12p10----10-12-(12)b14----|
|---------------------------------------------12------------------|
|-----------------------------------------------------------------|
|-----------------------------------------------------------------|


|------------------------------------------------------------------------|
|------------------------------------------------------------------------|
|------------------------------------------------------------------------|
|------------------------------------------------------------------5p=4--|
|-------------2h=3-----------3h=5----------2h==3-----3h=5----------------|
|--0----0--------------0-----------0--------------0---------0------------|
|
|------------------------------------------------------------------------|
|-13p10------10-------------------------------10-10-10-------------------|
|---------12----12b14-12p10----10-12b14==(12)-12-12-12-12r(12)p10----10--|
|---------------------------12------------------------------------12-----|
|------------------------------------------------------------------------|
|------------------------------------------------------------------------|


|-----------|---------|
|-----------|---------|
|-----------|---------|
|--0--------|--(0)----|
|--0--------|--(0)----|
|--0--------|--(0)----|
|
|-----------|---------|
|-----------|---------|
|-----------|---------|
|-12--------|-(12)----|
|-----------|---------|
|-----------|---------|

h-hammer on
p-pull off
b-bend (the note next to the bend indicates how far to bend the note.
           For example, a 12b14 is a whole step bend on the 12th fret.)
=-hold bend

Hope that helps.

****************************************************************
* Generated using Power Tab Editor by Brad Larsen -
 http://powertab.guitarnetwork.org *
****************************************************************

Comments about this tab

No comments/corrections found. Add your own

Complimentary Christian Ringtones
Dadamobile and CGR have teamed up to bring your favorite Christian artists right to your phone. Sign up today and get 10 complementary ringtones!
Tab Country
Did you know CGR has a sister site w/ country guitar tabs? Well we do! Its called Tab Country. It has a great archive with a lot of country tabs.
Rockin Tabs
Are you looking for a site that has rock guitar tabs? Then Rockintabs.com is the place for you. It is a budding site with many rock guitar tabs. Submit your tab today.
Tab Gallery
Tab Gallery has a compilation of christian, rock, and country tabs all in one place. Come visit us.