Guitar Tabs
song title    band name

Join Us Today!

Don't strum alone...
be a part of the largest online Christian music community. Browse thousands of guitar tabs and chat w/ musicians like yourself.


It's Free!

This tab has not yet been rated for accuracy.Sorry, but you must be logged in to rate this tab.
Click here to log-in, or you can click here to register.
(Registration is free)

All songs owned by corresponding publishing company. If you make copies of any song on this website, be sure to report your usage to CCLI.
Submitted by: Ibanezdude

Kutless 
Tonight 
Drop D

(Intro/verse) clean
D------------------------------------------------------------------------------------------
A----5---5-6----5-4---4-5----5---5-6----5-4---4-5----5---5-6----5-4--4-5----5------5---5-6-
D--0---0------0------0-------0---0------0-------0-----0-----0------0-----0-------0----0---0

D---------------------------------------------------------
A-----5----5-6---6-s8-----5--------------------------
D--0----0------0--------0------------------------------

(Intro/chorus) distorted
G---------------------------------------------------------------------------------------
D--0-0-0-0-0--3-3--8-8-8-8--0-0-0-0-0--3-3--x-x--10-10--0-0-0-0-0--3-3--8-8-8-8----------
A--0-0-0-0-0--3-3--8-8-8-8--0-0-0-0-0--3-3--x-x--10-10--0-0-0-0-0--3-3--8-8-8-8----------
D--0-0-0-0-0--3-3--8-8-8-8--0-0-0-0-0--3-3--x-x--10-10--0-0-0-0-0--3-3--8-8-8-8----------

G------------------------------------
D--0--3--2--0--2--0-------------
A--0--3--2--0--2--0-------------
D--0--3--2--0--2--0-------------

(verse) clean

(chorus 2x ) distorted - With this breakdown after the first time you complete the chorus.  
the breakdown to bleed into the second part of the chorus is this:

G------------------------------------------
D--2-2-2---------------------------------
A--2-2-2---------------------------------
D--2-2-2---------------------------------
Then play the chorus once again.

(verse)clean

(chorus 2x with breakdown inbetween)distorted

(riff) clean

D----4-----4----4----4-5----5----5----5----5-7----7----7-8----8-7----5-----------
A-------------------------------------------------------------------------------------
D--0----0----0----0-------0----0----0----0-------0-----0------0-------0-------------
repeat 2x

distorted
D------4-4------4------4----4-5-----5-5------5----5----5-7----7-7------7-8---8-7---5--
A--0-0-----0-0-----0-----0-----0-0------0-0----0----0-----0-0-----0-0------0-----0----
D--0-0-----0-0-----0-----0-----0-0------0-0----0----0-----0-0-----0-0------0-----0----
repeat 2x after riff

imeadatly after riff ( listen to the song you'll get it )
D--0-3-2-0-2-0----------------
A--0-3-2-0-2-0----------------
D--0-3-2-0-2-0----------------

(Chorus 3x)


 


Comments about this tab

No comments/corrections found. Add your own

Complimentary Christian Ringtones
Dadamobile and CGR have teamed up to bring your favorite Christian artists right to your phone. Sign up today and get 10 complementary ringtones!
Tab Country
Did you know CGR has a sister site w/ country guitar tabs? Well we do! Its called Tab Country. It has a great archive with a lot of country tabs.
Rockin Tabs
Are you looking for a site that has rock guitar tabs? Then Rockintabs.com is the place for you. It is a budding site with many rock guitar tabs. Submit your tab today.
Tab Gallery
Tab Gallery has a compilation of christian, rock, and country tabs all in one place. Come visit us.