Guitar Tabs
song title    band name

Join Us Today!

Don't strum alone...
be a part of the largest online Christian music community. Browse thousands of guitar tabs and chat w/ musicians like yourself.


It's Free!

This tab has been rated a 4.57 out of 5 for accuracy. (7 votes)Sorry, but you must be logged in to rate this tab.
Click here to log-in, or you can click here to register.
(Registration is free)

All songs owned by corresponding publishing company. If you make copies of any song on this website, be sure to report your usage to CCLI.
Submitted by: Ibanezdude

Kutless
Tonight
Drop D

Intro.
E----------------------------------------------------------------------------------
B----------------------------------------------------------------------------------
G----------------------------------------------------------------------------------
D----------------------------------------------------------------------------------
A-----5---5-6---5-4---4-5---5---5-6---5-4---4-5---5---5-6-s8---5-------------------
D---0---0-----0-----0-----0---0-----0-----0-----0---0--------0---------------------

E----------------------------------------------------------------------------------
B----------------------------------------------------------------------------------
G----------------------------------------------------------------------------------
D-0-0-0-0-0--3-3--8-8-8-8--0-0-0-0-0--3-3--x-x-10-10--0-0-0-0-0--3-3--8-8-8-8------
A-0-0-0-0-0--3-3--8-8-8-8--0-0-0-0-0--3-3--x-x-10-10--0-0-0-0-0--3-3--8-8-8-8------
D-0-0-0-0-0--3-3--8-8-8-8--0-0-0-0-0--3-3--x-x-10-10--0-0-0-0-0--3-3--8-8-8-8------


E--------------------------------------
B--------------------------------------
G--------------------------------------
D-0--3--2--0--2--0---------------------
A-0--3--2--0--2--0---------------------
E-0--3--2--0--2--0---------------------

verse
E----------------------------------------------------------------------------------
B----------------------------------------------------------------------------------
G----------------------------------------------------------------------------------
D----------------------------------------------------------------------------------
A-----5---5-6---5-4---4-5---5---5-6---5-4---4-5---5---5-6-s8---5-------------------
D---0---0-----0-----0-----0---0-----0-----0-----0---0--------0---------------------

E----------------------------------------------------------------------------------
B----------------------------------------------------------------------------------
G----------------------------------------------------------------------------------
D--x-x--x-x--x-x--x-x--x-x--x-x----------------------------------------------------
A--x-x--x-x--x-x--x-x--x-x--x-x----------------------------------------------------
D--x-x--x-x--x-x--x-x--x-x--x-x----------------------------------------------------

chorus
E----------------------------------------------------------------------------------
B----------------------------------------------------------------------------------
G----------------------------------------------------------------------------------
D-0-0-0-0-0--3-3--8-8-8-8--0-0-0-0-0--3-3--x-x-10-10--0-0-0-0-0--3-3--8-8-8-8------
A-0-0-0-0-0--3-3--8-8-8-8--0-0-0-0-0--3-3--x-x-10-10--0-0-0-0-0--3-3--8-8-8-8------
D-0-0-0-0-0--3-3--8-8-8-8--0-0-0-0-0--3-3--x-x-10-10--0-0-0-0-0--3-3--8-8-8-8------

E----------------------------------------------------------------------------------
B----------------------------------------------------------------------------------
G----------------------------------------------------------------------------------
D-0--3--2--0--2--0----2-2-2--------------------------------------------------------
A-0--3--2--0--2--0----2-2-2--------------------------------------------------------
D-0--3--2--0--2--0----2-2-2--------------------------------------------------------
Repeat 2x

verse

chorus

riff

E----------------------------------------------------------------------------------
B----------------------------------------------------------------------------------
G----------------------------------------------------------------------------------
D----4---4---4---4-5---5---5---5---5-7---7---7-8---8-7---5-------------------------
A----------------------------------------------------------------------------------
D--0---0---0---0-----0---0---0---0-----0---0-----0-----0---------------------------
Repeat 2x

E----------------------------------------------------------------------------------
B----------------------------------------------------------------------------------
G----------------------------------------------------------------------------------
D-----4-4-----4---4---4-5---5-5---5---5---5-7---7-7---7-8---8-7---5----------------
A-0-0-----0-0---0---0-----0-----0---0---0-----0-----0-----0-----0------------------
D-0-0-----0-0---0---0-----0-----0---0---0-----0-----0-----0-----0------------------
Repeat 2x then-below as soon as you are done

E----------------------------------------------------------------------------------
B----------------------------------------------------------------------------------
G----------------------------------------------------------------------------------
D-0-3-2-0-2-0----------------------------------------------------------------------
A-0-3-2-0-2-0----------------------------------------------------------------------
D-0-3-2-0-2-0----------------------------------------------------------------------

Chorus

Chorus

Chorus

My friend taught me this song so I owe it all to him, God, and Kutless.
This was my first tab, so sorry if it is a little off.










Comments about this tab

guitarcordfreak - 2006-03-29

awesome!!!!!!!!!!!!!!!!:) this tab sounds a little off on the part where you play the 10th fret but it is close enough to sound like the real thing. Keep doing what your doing!!!!!!


gmhblader - 2006-04-04

ya I think the only thing you should do differently is this:

E-...--------
B-...--------
G-...--------
D-...-X-10-10
A-...-X-10-10
D-...-X-10-10

I'm to lazy to copy the whole thing up lol, but I hope you know what I mean by this. Otherwise, this tabs like perfect. Thanks for the tab dude!


HermionePower - 2006-06-13

Amazing! Perfect, great job!


Tomkins - 2006-09-18

Yea, these are awxsome!


Add a comment/correction

Complimentary Christian Ringtones
Dadamobile and CGR have teamed up to bring your favorite Christian artists right to your phone. Sign up today and get 10 complementary ringtones!
Tab Country
Did you know CGR has a sister site w/ country guitar tabs? Well we do! Its called Tab Country. It has a great archive with a lot of country tabs.
Rockin Tabs
Are you looking for a site that has rock guitar tabs? Then Rockintabs.com is the place for you. It is a budding site with many rock guitar tabs. Submit your tab today.
Tab Gallery
Tab Gallery has a compilation of christian, rock, and country tabs all in one place. Come visit us.