Guitar Tabs
song title    band name

Join Us Today!

Don't strum alone...
be a part of the largest online Christian music community. Browse thousands of guitar tabs and chat w/ musicians like yourself.


It's Free!

This tab has been rated a 3.00 out of 5 for accuracy. (4 votes)Sorry, but you must be logged in to rate this tab.
Click here to log-in, or you can click here to register.
(Registration is free)

All songs owned by corresponding publishing company. If you make copies of any song on this website, be sure to report your usage to CCLI.
Submitted by: Mithrandir.EXE

Demon Hunter
The Triptych - Deteriorate
Tabbed by: Noah Settersten

Here's the corrected version of my previous tab.

A powerful, yet simple song off of the upcoming Demon Hunter CD

There is an delay-like effect on guitar 1 throughout the song
Drop B Tuning

Intro/Verse (Guitar 1)
Db---------------------------------------------------------
Ab---------------------------------------------------------
E---------7---------------7--------------------------------
B------5-----5----------------------------7----------------
Gb--7------------------9-----9---------5-----5-------------
B-------------------9---------------5----------------------
Repeat as needed

Verse (Guitar 2)                                     Last Time
Db-------------------------------------------------|-----------
Ab-------------------------------------------------|-----------
E--7----------------7------------------------------|-----------
B--5----------------7---------------7--------------|---4-------
Gb-7----------------9---------------5--------------|---4-------
B-------------------9---------------5--------------|---4-------

Pre-Chorus
Db-----------------------------------------------------------------------
Ab-----------------------------------------------------------------------
E------5--------5--------------------------------------------------------
B----7---7----7---7------7--------7--------7--------7-------7--------7---
Gb-7--------7----------9---9----9---9----5---5----5---5---5---5----5---5-
B--------------------9--------9--------5--------5-------5--------5-------

Chorus
Db---------------------------------------------------------
Ab-8-------------------------------------------------------
E--7-------------------------------------------------------
B--5---------2---------7---------7-------9-----------------
Gb-5---------2---------7---------5-------7-----------------
B------------2---------7-----------------------------------


Bridge
Db---------------------------------------------------------
Ab---------------------------------------------------------
E----------------------------------------------------------
B--3--------5--------10---------2--------------------------
Gb-3--------5--------10---------2--------------------------
B--3--------5--------10---------2--------------------------


The end of the bridge is missing a small part and the chorus is close but not exactly correct.
Feel free to add your corrections!

Comments about this tab

Hi Im jesus - 2005-11-05

The only thing that kept you from getting a zero was that the timing was right. If I have enough time i might retab it and post it.


Mithrandir.EXE - 2005-11-07

Would you mind telling me what you think is wrong with it? I'm open to any changes or corrections, but I'd like to know what I got wrong with the tab.


chickensallad64 - 2005-11-11

the second part of the intro is wrong and thats pretty much it.


Adam K - 2005-11-28

Here is the Intro

Intro/Verse (Guitar 1)
Db--------10--------------10--------------5-----]
Ab-----8------8---------------------------------]
E----------------------11-----11-------7-----7--]
B-----------------------------------------------]
Gb--7-------------------------------------------]
B-------------------9---------------5-----------]
Repeat as needed


pillarrockstar - 2007-06-05

actually the song is actually in drop d because reason why io say drop d dis because i played it in drop d along with the song and it sounds way way better in drop d so try it in drop d it sounds a lot better.


shamgar001 - 2008-07-14

No, there is a low C# chord. Drop d wouldn't work for that


Add a comment/correction

Complimentary Christian Ringtones
Dadamobile and CGR have teamed up to bring your favorite Christian artists right to your phone. Sign up today and get 10 complementary ringtones!
Tab Country
Did you know CGR has a sister site w/ country guitar tabs? Well we do! Its called Tab Country. It has a great archive with a lot of country tabs.
Rockin Tabs
Are you looking for a site that has rock guitar tabs? Then Rockintabs.com is the place for you. It is a budding site with many rock guitar tabs. Submit your tab today.
Tab Gallery
Tab Gallery has a compilation of christian, rock, and country tabs all in one place. Come visit us.