Guitar Tabs
song title    band name

Join Us Today!

Don't strum alone...
be a part of the largest online Christian music community. Browse thousands of guitar tabs and chat w/ musicians like yourself.


It's Free!

This tab has been rated a 3.57 out of 5 for accuracy. (7 votes)Sorry, but you must be logged in to rate this tab.
Click here to log-in, or you can click here to register.
(Registration is free)

All songs owned by corresponding publishing company. If you make copies of any song on this website, be sure to report your usage to CCLI.
Submitted by: thibeaz

Rawkfist
Phenomenon
Drop D

Intro: -----------
       -----------
       -----------
       --2-2------
       --2-2------
       --2-2------

verse: -----xxx-----xxxxxxx-----xxx-----xxxxxxx-----xxx-----xxxxxxx
       -----xxx-----xxxxxxx-----xxx-----xxxxxxx-----xxx-----xxxxxxx
       -----xxx-----xxxxxxx-----xxx-----xxxxxxx-----xxx-----xxxxxxx
       -----xxx-----xxxxxxx-----xxx-----xxxxxxx-----xxx-----xxxxxxx
       -5h7-xxx-5h7-xxxxxxx-5h7-xxx-5h7-xxxxxxx-5h7-xxx-5h7-xxxxxxx
       -----xxx-----xxxxxxx-----xxx-----xxxxxxx-----xxx-----xxxxxxx
                                                                         X2
       -----xxxxx---------------------------------------------
       -----xxxxx---------------------------------------------
       -----xxxxx---------------------------------------------
       -----xxxxx--5-4-0--------------------------------------
       -5h7-xxxxx--5-4-0--------------------------------------
       -----xxxxx--5-4-0--------------------------------------

Chorus: 
        
       Repeat 3 times          lighten it up now.......
       ----------------------|----------------------------
       ----------------------|--------------------------- 
       ----------------------|----------------------------
       --2-2-0-------7-7-7---|---------------------------------
       --2-2-0-------7-7-7---|-2-0-2---5-0-7-------------------------
       --2-2-0-0-0-0-7-7-7---|-2-0-2---5-0-7-------------------------


Bridge: -------------------------------------xxx-----xxxxxx-----xxxx------
        -------------------------------------xxx-----xxxxxx-----xxxx-------
        -------------------------------------xxx-----xxxxxx-----xxxx------
        --2--2-0-2---2-2-----------2--2-0-2--xxx-----xxxxxx-----xxxx------
        --2--2-0-2---2-2-----------2--2-0-2--xxx-2~~-xxxxxx-1~~-xxxx-------
        --2--2-0-2~--2-2-----------2--2-0-2--xxx-----xxxxxx-----xxxx-------
                 
        -------------------------- xxx----xxxxxx----xxxx-----
        ---------------------------xxx----xxxxxx----xxxx-----
        ---------------------------xxx----xxxxxx----xxxx-----
        --2--2-0-2--2-2--2--2-0-2--xxx----xxxxxx----xxxx-----
        --2--2-0-2--2-2--2--2-0-2--xxx-2~-xxxxxx-1~-xxxx-----
        --2--2-0-2--2-2--2--2-0-2--xxx---xxxxxx-----xxxx-----

        ------------------------------
        ------------------------------
        ------------------------------
        --2-2-----2-2-----2-2----2-2--
        --2-2-----2-2-----2-2----2-2--
        --2-2-----2-2-----2-2----2-2--

      Follow rythem.....
      --------------------------------------------------
      --------------------------------------------------
      --------------------------------------------------
      --------------------------------------------------
      --------------------------------------------------
      -7-0-7-0--7-0-7---------------------------------------

Comments about this tab

Matth_3000 - 2005-12-18

The last part isn't D|-70707--- but more like
D|--7572-7572 757--7572-7572 757 I think
The other stuff looks good to me :P


thibeaz - 2005-12-19

thanks


afroman2312 - 2006-02-10

sounds good
the chrous though sounds like this but im not 100% sure so bare with me

-
-
-
-2-0-7--2-0-7-10
-2-0-7--2-0-7-10
-2-0-7--2-0-7-10

Then after the chrous instead of 2-0-2 it sounds like 5-0-2
other than that sounds great
byron


thibeaz - 2006-02-23

thanks again I like to get ideas on how to make this better. Helps build a better tabber :)


theflameguitar - 2006-03-30

ON THE VERY LAST PART you have to pick up the beat make it 70-70-70-7 and you have to add -------0 so that epuals 70-70-70-7-------0


Dani_Boy - 2006-04-06

This looks EXACTLY like Mr. Switchfoot's tab, the only difference is the verse doesn't have those awful-looking gaps. Either you copied his or the other way around it looks like to me. I would never want to copy someone's tab, but even if I would this tab is so off it's not worth copying. Honestly. It's got a few things right, but otherwise it's pretty off.


Dani_Boy - 2006-04-10

Look, I don't want to be harsch on you, tell me if I say something that's bad or rude because I don't want to say bad or rude things. But honestly, this tab has the best rating for a Rawkfist tab and it's not all that great really. Sorry


antipiff - 2006-04-10

wow dani. them are some pretty harsh words. your a bit of a jerk huh? id love to see you make a better tab of this song.


rockNforchrist - 2006-05-08

I think the last part is pretty much this until the end.
(On the low D string)

p=pull off

-7p2-5p2--7p2-5p2--7p2-5p2-7p2-5p2--7p2-5p2--7p2-5p2


Dani_Boy - 2006-05-12

yeah, maybe it was a little harsh, but I didn't say it was bad. I just said it's not all that great, hope nobody took it in a bad way. I have done a version of this song now, including the Lead Guitar also. So I'm no trying to say bad things about someone's tab and not do anything about it. Let me just make clear again that I don't mean to be harsh and definitely not a jerk. I didn't say it was bad, all I was trying to say was that it's not perfect, we needed some improvements. So forgive me if I made anyone upset.


Dani_Boy - 2006-05-12

I want to apologize to Thibeaz. I expressed myself in a very clumsy way. I regret that. But I still think this tab looks a little too much like that other tab which I mentioned earlier.

Being a jerk is as far from what I want to be as you can come. So I certainly hope didn't act like one. Sorry again


Add a comment/correction

Complimentary Christian Ringtones
Dadamobile and CGR have teamed up to bring your favorite Christian artists right to your phone. Sign up today and get 10 complementary ringtones!
Tab Country
Did you know CGR has a sister site w/ country guitar tabs? Well we do! Its called Tab Country. It has a great archive with a lot of country tabs.
Rockin Tabs
Are you looking for a site that has rock guitar tabs? Then Rockintabs.com is the place for you. It is a budding site with many rock guitar tabs. Submit your tab today.
Tab Gallery
Tab Gallery has a compilation of christian, rock, and country tabs all in one place. Come visit us.