Guitar Tabs
song title    band name

Join Us Today!

Don't strum alone...
be a part of the largest online Christian music community. Browse thousands of guitar tabs and chat w/ musicians like yourself.


It's Free!

This tab has been rated a 5.00 out of 5 for accuracy. (2 votes)Sorry, but you must be logged in to rate this tab.
Click here to log-in, or you can click here to register.
(Registration is free)

All songs owned by corresponding publishing company. If you make copies of any song on this website, be sure to report your usage to CCLI.
Submitted by: thibeaz

Intro

|-----------|---------------|-----------------|
|-----------|---------------|-----------------|
|-----------|---------------|-----------------|
|-----------|------8-8--x-x-|-----------------|
|-----------|-5--5-6-6--x-x-|-x-3-3-3-3-3-3-3-|
|-----------|-3--3----------|-x-1-1-1-1-1-1-1-|


|---------------|-----------------------|
|---------------|-----------------------|
|---------------|-----------------------|
|------8-8--x-x-|-x-5-5----5---5--5--5-|
|-5--5-6-6--x-x-|-x-3-3----3---3--3--3-|
|-3--3----------|-----------------------|
                       


|-----------------|----------------|
|-----------------|----------------|
|-----------------|----------------|
|-8-8-8-8-8-8-8-8-|-7-7-7-7-7-7-7--|
|-6-6-6-6-6-6-6-6-|-5-5-5-5-5-5-5--|
|-----------------|----------------|

 Verse 
(you can use power chords here, but I think that these sound a bit better)    
||----------------|---------------|---------------|-----------------||
||o-1--1--1-1-1---|-3--3--3-3-3---|-5--5--5-5-5---|-3--3--3-3-3----o||
||--0--0--0-0-0-0-|-0--0--0-0-0-0-|-0--0--0-0-0-0-|-0--0--0-0-0-0---||
||----------------|---------------|---------------|-----------------||
||o-3--3--3-3-3-5-|-5--5--5-5-5-7-|-7--7--7-7-7-2-|-2--2--2-2-2-3--o||
||----------------|---------------|---------------|-----------------||

 Chorus
  
|---------------|-----------------|---------------|-----------------|
|---------------|-----------------|---------------|-----------------|
|---------------|-----------------|---------------|-----------------|
|------8-8--x-x-|-----------------|------8-8--x-x-|-x-5-5-5-5-5-5-5-|
|-5--5-6-6--x-x-|-x-3-3-3-3-3-3-3-|-5--5-6-6--x-x-|-x-3-3-3-3-3-3-3-|
|-3--3----------|-x-1-1-1-1-1-1-1-|-3--3----------|-----------------|

                                                             
|--------------|-----------------|-----------------|-----------------|
|--------------|-----------------|-----------------|-----------------|
|--------------|-----------------|-----------------|-----------------|
|------8-8-x-x-|-x-5-5-5-5-5-5-5-|-8-8-8-8-8-8-8-8-|-7-7-7-7-7-7-7-7-|
|-5--5-6-6-x-x-|-x-3-3-3-3-3-3-3-|-6-6-6-6-6-6-6-6-|-5-5-5-5-5-5-5-5-|
|-3--3---------|-----------------|-----------------|-----------------|

|----------|--------|
|----------|--------|
|----------|--------|
|-5--------|-(5)----|
|-3--------|-(3)----|
|----------|--------|

    
|----------------------||
|----------------------||
|----------------------||
|----------------------||
|------------x--x-9---||
|------------x--x-7---||


 Bridge
                                               
|-----------------|-----------------|-----------------|-----------------|
|-----------------|-----------------|-----------------|-----------------|
|-7/9-9-9-9-9-9-9-|-9/7-7-7-7/9-7-7-|-4-4-4-4-4-4-4-4-|-4-4-4-4-4-4-4-4-|
|-----------------|-----------------|-----------------|-----------------|
|-----------------|-----------------|-----------------|-----------------|
|-----------------|-----------------|-----------------|-----------------|


|-----------------|-----------------|
|-----------------|-----------------|
|-7/9-9-9-9-9-9-9-|-9/7-7-7-7/9-7-7-|
|-----------------|-----------------|
|-----------------|-----------------|
|-----------------|-----------------|

  Gtr I
|---------------|-----------------|-----------------|-----------------|
|---------------|-----------------|-----------------|-----------------|
|---------------|-----------------|-----------------|-----------------|
|------8-8--x-x-|-----------------|-------8-8-8-----|---8-8-8---------|
|-5--5-6-6--x-x-|-x-3-3-3-3-3-3-3-|-5-5-5-6-6-6-5-5-|-5-6-6-6-5-5-5-5-|
|-3--3----------|-x-1-1-1-1-1-1-1-|-3-3-3-------3-3-|-3-------3-3-3-3-|
|
| Gtr II
|---------------|-----------------|-----------------|-----------------|
|---------------|-----------------|-8-8-8-------8-8-|-8-------8-8-8-8-|
|---------------|-----------------|-7-7-7-------7-7-|-7-------7-7-7-7-|
|---------------|-----------------|-5-5-5-------5-5-|-5-------5-5-5-5-|
|---------------|-----------------|-----------------|-----------------|
|---------------|-----------------|-----------------|-----------------|

|-----------------|-----------------|
|-8-8-8-8-8-8-8-8-|-8-8-8-8-8-8-8-8-|
|-0-0-0-0-0-0-0-0-|-0-0-0-0-0-0-0-0-|
|-----------------|-----------------|
|-7-7-7-7-7-7-7-7-|-7-7-7-7-7-7-7-7-|
|-----------------|-----------------|

|-----------------|------------------|
|-----------------|------------------|
|-5-5-5-5-5-5-5-5-|--5-5-5-5-5-5-5-5-|
|-5-5-5-5-5-5-5-5-|--5-5-5-5-5-5-5-5-|
|-3-3-3-3-3-3-3-3-|--3-3-3-3-3-3-3-3-|
|-----------------|------------------|


|-----------------|------------------|
|-8-8-8-8-8-8-8-8-|--8-8-8-8-8-8-8-8-|
|-0-0-0-0-0-0-0-0-|--0-0-0-0-0-0-0-0-|
|-----------------|------------------|
|-7-7-7-7-7-7-7-7-|--7-7-7-7-7-7-7-7-|
|-----------------|------------------|

|------------------|-----------------|
|------------------|-----------------|
|--5-5-5-5-5-5-5-5-|-5-5-5-5-5-5-5-5-|
|--5-5-5-5-5-5-5-5-|-5-5-5-5-5-5-5-5-|
|--3-3-3-3-3-3-3-3-|-3-3-3-3-3-3-3-3-|
|------------------|-----------------|

|-----------|-----------------|-----------------|----------|
|-----------|-----------------|-----------------|----------|
|-----------|-----------------|-----------------|----------|
|-2-2-------|-2-2-2-2-2-2-2-2-|-5-5-5-5-5-5-5-5-|-5--------|
|-0-0-------|-0-0-0-0-0-0-0-0-|-3-3-3-3-3-3-3-3-|-3--------|
|-----------|-----------------|-----------------|----------|


 Chorus
|---------------|-----------------|---------------|-----------------|
|---------------|-----------------|---------------|-----------------|
|---------------|-----------------|---------------|-----------------|
|------8-8--x-x-|-----------------|------8-8--x-x-|-x-5-5-5-5-5-5-5-|
|-5--5-6-6--x-x-|-x-3-3-3-3-3-3-3-|-5--5-6-6--x-x-|-x-3-3-3-3-3-3-3-|
|-3--3----------|-x-1-1-1-1-1-1-1-|-3--3----------|-----------------|

|---------------|-----------------|-----------------|----------------|
|---------------|-----------------|-----------------|----------------|
|---------------|-----------------|-----------------|----------------|
|------8-8--x-x-|-x-5-5-5-5-5-5-5-|-8-8-8-8-8-8-8-8-|-7-7-7-7-7--x-x-|
|-5--5-6-6--x-x-|-x-3-3-3-3-3-3-3-|-6-6-6-6-6-6-6-6-|-5-5-5-5-5--x-x-|
|-3--3----------|-----------------|-----------------|----------------|

        
|-----------------|----------------|
|-----------------|----------------|
|-----------------|----------------|
|-8-8-8-8-8-8-8-8-|-7-7-7-7-7--x-x-|
|-6-6-6-6-6-6-6-6-|-5-5-5-5-5--x-x-|
|-----------------|----------------|

 Gtr I                       
|-----------------|-----------------|-------------*|
|-----------------|-----------------|-------------*|
|-----------------|-----------------|-------------*|
|-8-8-8-8-8-8-8-8-|-7-7-7-7-7-7-7-7-|-------------*|
|-6-6-6-6-6-6-6-6-|-5-5-5-5-5-5-5-5-|---5--------*|
|-----------------|-----------------|---3--------*|
GTR II
|-----------------|-----------------|-------------*|
|-----------------|-----------------|-------------*|
|-----------------|-----------------|-------------*|
|-8-8-8-8-8-8-8-8-|-7-7-7-7-7-7-7-7-|-------------*|
|-6-6-6-6-6-6-6-6-|-5-5-5-5-5-5-5-5-|-/10--------*|
|-----------------|-----------------|-------------*|

Comments about this tab

LemonySnicket - 2006-05-31

Awesome! Merci! ( i like French.....)


Switchfoot_ - 2007-01-30

Awesome!all except for...the bridge. I tabbed this s song out too,so here is the version i did(I did The Same as you,But I did In Chords,and The Bridge is right)

You Already Take Me There
Switchfoot
Learning To Breath

Tunning:Half a step down

Chords Used:
F:133xxx
G:355xxx
C:0355
D#:068800
D:057700
E:079900
G*:010121200

Intro:G D#D#Palm muted F
G D#D#Palm muted C

Verse:C C CCCC D D DDDD E E EEEE G* G* G*G*G*G* (Reapeat a couple times)

Chorus:G D# D#-Palm Muted F then G D# D#-Palm Muted C x2 then D# D

Verse Two:Same as verse one

Chorus

Bridge:C C CCCC D D DDDD E E EEEE G* G* G*G*G*G* x2 then C C CCCC D D DDDD
Then G D# D#-Palm Muted F then G D# D#-Palm Muted C then
C C CCCC D D DDDD E E EEEE G* G* G*G*G*G* then D

Chorus

Outro:D# D D# D D# D G


Add a comment/correction

Complimentary Christian Ringtones
Dadamobile and CGR have teamed up to bring your favorite Christian artists right to your phone. Sign up today and get 10 complementary ringtones!
Tab Country
Did you know CGR has a sister site w/ country guitar tabs? Well we do! Its called Tab Country. It has a great archive with a lot of country tabs.
Rockin Tabs
Are you looking for a site that has rock guitar tabs? Then Rockintabs.com is the place for you. It is a budding site with many rock guitar tabs. Submit your tab today.
Tab Gallery
Tab Gallery has a compilation of christian, rock, and country tabs all in one place. Come visit us.