Guitar Tabs
song title    band name

Join Us Today!

Don't strum alone...
be a part of the largest online Christian music community. Browse thousands of guitar tabs and chat w/ musicians like yourself.


It's Free!

This tab has been rated a 4.25 out of 5 for accuracy. (4 votes)Sorry, but you must be logged in to rate this tab.
Click here to log-in, or you can click here to register.
(Registration is free)

All songs owned by corresponding publishing company. If you make copies of any song on this website, be sure to report your usage to CCLI.
Submitted by: bennyboy345

Switchfoot
The Blues
Nothing is Sound

This is first tab I've submited, but I think it's mostly accurate to what they
play. I watched a video of them playing for "AOL Online" or something like that
and this is what it looked like they were playing. You'll have to listen to the
CD for order and stuff like that.

Intro:
E---------------------|----------------------|
B-10---10---10---10---|----------------------|
G-11---11---11---11---|--11---11---11---11---|
D---12---12---12---12-|--12---12---12---12---|
A---------------------|----10---10---10---10-|
E---------------------|----------------------|

E---------------------|----------------------|
B-10---10---10---10---|----------------------|
G-11---11---11---11---|--11---11---9----9----|
D---12---12---12---12-|--12---12---10-8-10-8-|
A---------------------|----10---10-----------|
E---------------------|----------------------|

In the Verse:
Repeat first two bars of the intro then play-
E---------------------|----------------------|
B---------------------|----------------------|
G-12---12---12---12---|--11---11---11---11---|
D-12---12---12---12---|--12---12---12---12---|
A---10---10---10---10-|----10---10---10---10-|
E---------------------|----------------------|

Chorus:
D A2 Bm Dsus/G

The chords for the chorus are:
D - x00232
A2- 002200
Bm- x24430 or 224432
Dsus/G-3x0233

Comments about this tab

5isakoolnumber - 2007-03-27

i was about to tab this song off of aol session but then i saw yours
i guesse u beat me to it.
oh well
kept me ocuppied
i did the whole intro and chorus but then i saw yours
wasted 2 and a 1/2 hours
oh well
god bless and nice tab!


5isakoolnumber - 2007-03-27

oh yeah
and in the corus its the fist cord u got writen there not the second


Add a comment/correction

Complimentary Christian Ringtones
Dadamobile and CGR have teamed up to bring your favorite Christian artists right to your phone. Sign up today and get 10 complementary ringtones!
Tab Country
Did you know CGR has a sister site w/ country guitar tabs? Well we do! Its called Tab Country. It has a great archive with a lot of country tabs.
Rockin Tabs
Are you looking for a site that has rock guitar tabs? Then Rockintabs.com is the place for you. It is a budding site with many rock guitar tabs. Submit your tab today.
Tab Gallery
Tab Gallery has a compilation of christian, rock, and country tabs all in one place. Come visit us.