Guitar Tabs
song title    band name

Join Us Today!

Don't strum alone...
be a part of the largest online Christian music community. Browse thousands of guitar tabs and chat w/ musicians like yourself.


It's Free!

This tab has been rated a 4.00 out of 5 for accuracy. (1 vote)Sorry, but you must be logged in to rate this tab.
Click here to log-in, or you can click here to register.
(Registration is free)

All songs owned by corresponding publishing company. If you make copies of any song on this website, be sure to report your usage to CCLI.
Submitted by: jam4him

Band: Relient k
Song: falling out
Album: Two lefts don’t make a right…but three do
tabbed by:jam4him
tuning:standard
Intro
|------------------------------------------------------------------------------|
|--3---3---3---3----4---4---4---4---3---3---3---3---4---4---1---1--------------|
|----3---3---3---3----3---3---3---3---3---3---3---3---3---3---3---3------------|
|------------------------------------------------------------------------------|
|------------------------------------------------------------------------------|
|------------------------------------------------------------------------------|

Verse 1  (Play twice open then twice palm muted)
|---------------------------------------------------------------|
|---------------------------------------------------------------|
|--33333333--55555555--88888888---------------------------------|
|--33333333--55555555--88888888---555---333---------------------|
|--11111111--33333333--66666666---555---333---------------------|
|---------------------------------333---111---------------------|

Chorus play twice
|---------------------------------------------------------------|
|---------------------------------------------------------------|
|--77-7--88888888-----------------------------------------------|
|--77-7--88888888--88888888--33333333---------------------------|
|--55-5--66666666--88888888--33333333---------------------------|
|------------------66666666--11111111---------------------------|

Verse 1 (Play once open then twice palm muted)
|--------------------------------------------------------------|
|--------------------------------------------------------------|
|--33333333--55555555--88888888--------------------------------|
|--33333333--55555555--88888888---555---333--------------------|
|--11111111--33333333--66666666---555---333--------------------|
|---------------------------------333---111--------------------|

Play the chorus again


Verse 2 (Play each one 16 times)
|--------------------------------------------------------------------------|
|--------------------------------------------------------------------------|
|--3--------5----------------8---------------------------------------------|
|--3--------5-------5--------8---------------------------------------------|
|--1--------3-------5--------6---------------------------------------------|
|-------------------3------------------------------------------------------|
The piano part is the same as the intro (Play it twice)


After the piano part (Palm mute all but the first three)
|--------------------------------------------------------------------|
|--------------------------------------------------------------------|
|--333---3333--------------------------------------------------------|
|--333---3333----5555---3333-----------------------------------------|
|--111---1111----5555---3333-----------------------------------------|
|----------------3333---1111-----------------------------------------|

Then… 
|------------------------------------------------------------|
|------------------------------------------------------------|
|--33333333---55555555--------------8888---------------------|
|--33333333---55555555---55555555---8888---3333--------------|
|--11111111---33333333---55555555---6666---3333--------------|
|------------------------33333333----------1111--------------|

After you have played this once repeat it but when you get to the B# or
6th fret stop palm muting and move into the chorus and play it two times.

Verse 2 twice more
Verse 1 twice more then finish

Hope this was helpful.  I’m not sure if the part 
after the piano solo is right but its really close 
(you could easily get it if you played around a bit)
Enjoy!
please rate!

Comments about this tab

godsmusicgeek - 2011-04-22

how do you do a palm mute? i've always wondered that, and several songs i want to play require them. just wondering.


Add a comment/correction

Complimentary Christian Ringtones
Dadamobile and CGR have teamed up to bring your favorite Christian artists right to your phone. Sign up today and get 10 complementary ringtones!
Tab Country
Did you know CGR has a sister site w/ country guitar tabs? Well we do! Its called Tab Country. It has a great archive with a lot of country tabs.
Rockin Tabs
Are you looking for a site that has rock guitar tabs? Then Rockintabs.com is the place for you. It is a budding site with many rock guitar tabs. Submit your tab today.
Tab Gallery
Tab Gallery has a compilation of christian, rock, and country tabs all in one place. Come visit us.