Guitar Tabs
song title    band name

Join Us Today!

Don't strum alone...
be a part of the largest online Christian music community. Browse thousands of guitar tabs and chat w/ musicians like yourself.


It's Free!

This tab has been rated a 2.00 out of 5 for accuracy. (2 votes)Sorry, but you must be logged in to rate this tab.
Click here to log-in, or you can click here to register.
(Registration is free)

All songs owned by corresponding publishing company. If you make copies of any song on this website, be sure to report your usage to CCLI.
Submitted by: guitardude0693

here is a dead accurate tab of Hypnotized
INTRO Drop C tuning                            VERSES ARE THE SAME THING AS THE INTRO EXCEPT IT IS PALM MUTED THE WHOLE TIME
D--------------------------|
A--------------------------|
F------2-----0-----0-----0-|
C----0---0-3-----0-----0--0|
G--------------3-----1-----|
C--0-----------------------|


                                                                        2nd time end with an open C
  CHORUS
D------------------------------------------------------------------|
A------------------------------------------------------------------|
F---------------3--222-3--222--------------------------------------|
C----333---333--3------3-----------333---333-----------------------|
G---------------1------1-------------------------------------------|
C--0-----0----------------------0------0------X-X-X-X-X---555---333|

I didnt feel like doing the bridge so if u dont like it find another tab. SORRY really I am. GOD BLESS

Comments about this tab

Ibanezdude - 2005-10-28

Every time I go to post a tab I create it, then I hit submit tab, but the tab does not show up in the tab list. Can somebody tell me what I am doing wrong or if there is something else I need to do. Please help me I have a really good Kutless tab.


Jaewalkin - 2005-11-23

your intro is close, but you chorus is dead wrong.


Joe Hofner - 2005-12-08

tuning C G C F A D i think it sounds a little better like this
intro
C----0-7-00-3-5-----5---3-5-
G---------------3-5---1-----
C--0------------------------

i think the verse is the same as intro
just different picking and 1 or 2 changes
i think they pick each one a few times and a little faster

verse
1st time
C----0-7-00-3-5-----5---3-5-
G---------------3-5---1-----
C--0------------------------

2nd time
F------------------------55-3-
C---0-7-00-3-5-----5---3------
G--------------3-5---1--------
C-0---------------------------


Jonathan4160 - 2006-01-08

that chorus is incorrect. butr good effort


guitardude0693 - 2006-03-05

srry bout the chorus it should really be...

-----------------------------------------------------
-----------------------------------------------------
-----------------------------------------------------

--888----888----777--777---888---888
-0-----0------8----8-----5-----5----......... I dont feel like puttin the second half of the chorus because i have to go to Church. If you think im wrong then u r sayin the book is wrong( considering i got the music book for Christmas Peace out!!)


Add a comment/correction

Complimentary Christian Ringtones
Dadamobile and CGR have teamed up to bring your favorite Christian artists right to your phone. Sign up today and get 10 complementary ringtones!
Tab Country
Did you know CGR has a sister site w/ country guitar tabs? Well we do! Its called Tab Country. It has a great archive with a lot of country tabs.
Rockin Tabs
Are you looking for a site that has rock guitar tabs? Then Rockintabs.com is the place for you. It is a budding site with many rock guitar tabs. Submit your tab today.
Tab Gallery
Tab Gallery has a compilation of christian, rock, and country tabs all in one place. Come visit us.