Guitar Tabs
song title    band name

Join Us Today!

Don't strum alone...
be a part of the largest online Christian music community. Browse thousands of guitar tabs and chat w/ musicians like yourself.


It's Free!

This tab has been rated a 4.00 out of 5 for accuracy. (2 votes)Sorry, but you must be logged in to rate this tab.
Click here to log-in, or you can click here to register.
(Registration is free)

All songs owned by corresponding publishing company. If you make copies of any song on this website, be sure to report your usage to CCLI.
Submitted by: 12ptrsfldSTONES

Song: Cavity King
Band: Project 86
Album: ...And The Rest Will Follow
Tabbed by: Aaron Bevacqua(swnkylaxplyr@earthlink.net)
Tuning: Drop D (DADGBE)

s\=slide
~=let note/chord ring
/=slur





I figured some of this out without my guitar, so parts may be pretty off. 

Intro/verse:(distortion, delay)
I can't really get this correct yet, but how I play it is I just alternate 
between these two chords. Pick them slowly, too, almost like sweep-picking. 

e:-7-~-7~----------------
B:-10~-9~----------------
G:-9-~-9~----------------
D:-7-~-7~----------------
A:-7-~-7~----------------
D:-7-~-7~----------------

Chorus: 4 times

e:-------------------------------------------------------------------
B:-------------------------------------------------------------------
G:-7777--14141414--10101010--12121212--------------------------------
D:-xxxx---x-x-x-x--x-x-x-x----x-x-x-x--------------------------------
A:-5555--12121212--8-8-8-8---10101010--------------------------------
D:-------------------------------------8/10-00-10/12-00-8/10-00-7/8--



Intro/verse

Chorus



intro to bridge goes like this:

D:---------------------------------
A:---------------------------------
D:-7/8-00-8/10-00-10/12-00-12/13---


Bridge part 1: figure out strumming yourself

e:---------------
B:---------------
G:---------------
D:-0-7-8-7-10----
A:-0-7-8-7-10----
D:-0-7-8-7-10----


Bridge part 2: 

e:-----------------------------------------------------------------
B:-----------------------------------------------------------------
G:------1414141414-------1414141414-------1414141414---------------
D:-000---x-x-x-x-x--555---x-x-x-x-x--000---x-x-x-x-x--5-77777-333--
A:-000--1212121212--555--1212121212--000--1212121212--5-77777-333--
D:-000--------------555--------------000--------------5-77777-333--


Bridge part 3: repeat, gradually letting up on the palm muting. Don't know
what the last chord is. 

e:-------------------------
B:-333-222-00--2/3333-000--
G:-------------------------



Chorus

Bridge intro

Bridge part 1



Outro: 

D:-------------------------------
A:-------------------------------
D:-8/10-00-10/12-00-8/10-00-7/8--  

repeat until:

D:----------------------------------------
A:----------------------------------------
D:-8/10-00-10/12-00-12/14-00-14/15s\\\\\--

Comments about this tab

_Mat_ - 2006-04-04

the last part of the chorus is actually
d-----------------------
a--0h2p--0h5p--0h3p--0h2p
d-----------------------


_Mat_ - 2006-04-04

ow and the intro to the bridge is actually
d----------------------------
a----0h2-0h5--0h6--0h8------
d---------------------------
it sounds a bit different


_Mat_ - 2006-04-04

here i am agian, the first 0h2p on the chorus and bridge must be 0h3p
sorry


Add a comment/correction

Complimentary Christian Ringtones
Dadamobile and CGR have teamed up to bring your favorite Christian artists right to your phone. Sign up today and get 10 complementary ringtones!
Tab Country
Did you know CGR has a sister site w/ country guitar tabs? Well we do! Its called Tab Country. It has a great archive with a lot of country tabs.
Rockin Tabs
Are you looking for a site that has rock guitar tabs? Then Rockintabs.com is the place for you. It is a budding site with many rock guitar tabs. Submit your tab today.
Tab Gallery
Tab Gallery has a compilation of christian, rock, and country tabs all in one place. Come visit us.