Guitar Tabs
song title    band name

Join Us Today!

Don't strum alone...
be a part of the largest online Christian music community. Browse thousands of guitar tabs and chat w/ musicians like yourself.


It's Free!

This tab has been rated a 5.00 out of 5 for accuracy. (4 votes)Sorry, but you must be logged in to rate this tab.
Click here to log-in, or you can click here to register.
(Registration is free)

All songs owned by corresponding publishing company. If you make copies of any song on this website, be sure to report your usage to CCLI.
Submitted by: spmedic

Ok I know there are other posts with several alternate tunings...I looked at what was 
Listed on Building429.com and either my CD player plays 1/2 step off or the music
listed on that site is 1/2 step too high.  Anywho..I played this several times
with the CD and I think its correct.

First tune to Drop D.. for newbies (please don't others laugh) simply tune your
top E string down 1 Whole step or when it harmonizes with your D String.

Intro...

--------------------------------------------
--------------------------------------------
--------------------------------------------
--6-6-6-------4-3-3-\4-/3----6-6-6------4---
--4-4-3-------4-3-3-\4-/3----4-4-3------4---
---------\8-6-4-3-3-\4-/3----------/8-6-4---

Verse...

---------------------------------                        ---     ---
---------------------------------                        ---     ---
------6-5----------6-5-----------                        --3     ---
----4-----6------4-----6----6-6-6  REPEAT  END VERSE ON  --3 OR  --8 SAME CHORD
---4------------4-----------3-3-4                        --1     --8  YOUR CHOICE
---------------------------------                        ---     ---  


Chorus...

-----------------------------------------
-----------------------------------------
-----------------------------------------
--6---6---8---4---3---4---8---6---4---1--
--4---3---8---4---3---4---8---6---4---1--
----------8---4---3---4---8---6---4---1--

The  --3  Could be --4 since the website lists a F#/D and I', 1/2 step down
     --3           --4                but it doesn't seem right...
     --3           --3

There are several variations of the way you can play the chords.
This post is mostly just 1/2 step lower than what is on the website.  The 
last chord of the chorus, Db, forces the drop D tuning.

Play the verse chord as a bar chord and pull off the 6th fret G string..

------------
-----------
--6---5--(5)
--4--(4)--6-
--4--(4)-(4)
--4--(4)-(4)

Bridge...

------------------------
------------------------
------------------------
--8---6---6---4---6---4-
--8---3---4---4---6---4-
--8-----------4---6---4-

Hope that helps...comments welcome...

Your brother in Christ....

Comments about this tab

bbay - 2007-05-05

I havent listened to this song for months, but I'm pretty sure it's something like this.. It may be tuned up or down 1/2 step, but you know they are taking advantage of using the dmajor chord, since it's drop-d.

Intro

-----------------------------------------------------
-----------------------------------------------------
-----------------------------------------------------
-7----7----4--4--------------------------------------
-5----4----2--0---5---4----0-4-5-4-0-----------------
------------------5---4----0-4-5-4-0-----------------



D D/C# Bm G
I wake up to find your glory defined ...... ......


Shmitty509 - 2008-11-15

Nice Tab, I've been wanting to play this song for soo long. Nic1e


Shmitty509 - 2008-11-15

Nice Tab, I've been wanting to play this song for soo long. Nice Work!


inkey - 2008-12-19

Thaank you for taking pitty on the newbies, that was me a couple months ago! Very nice tab!


iAmAPeanut - 2010-07-15

This is an awesome tab, but I think there's some things missing...in the intro, there's a little riff thrown in after this:

d-4-3
a-4-3
D-4-3

I don't know if it's right, but here's how I'm doing that riff:

d----------
a------6p4-
D-3h4h6----

If you do the 6p4 with your ring and index fingers, that puts your index finger on the A string fourth fret, so you can easily repeat the intro. I'm not sure if that's what Building 429 does, but it sounds good to me...


Add a comment/correction

Complimentary Christian Ringtones
Dadamobile and CGR have teamed up to bring your favorite Christian artists right to your phone. Sign up today and get 10 complementary ringtones!
Tab Country
Did you know CGR has a sister site w/ country guitar tabs? Well we do! Its called Tab Country. It has a great archive with a lot of country tabs.
Rockin Tabs
Are you looking for a site that has rock guitar tabs? Then Rockintabs.com is the place for you. It is a budding site with many rock guitar tabs. Submit your tab today.
Tab Gallery
Tab Gallery has a compilation of christian, rock, and country tabs all in one place. Come visit us.