Guitar Tabs
song title    band name

Join Us Today!

Don't strum alone...
be a part of the largest online Christian music community. Browse thousands of guitar tabs and chat w/ musicians like yourself.


It's Free!

This tab has been rated a 3.20 out of 5 for accuracy. (5 votes)Sorry, but you must be logged in to rate this tab.
Click here to log-in, or you can click here to register.
(Registration is free)

All songs owned by corresponding publishing company. If you make copies of any song on this website, be sure to report your usage to CCLI.
Submitted by: joellaw44

Song: Searchlights
Artist: Falling Up
Album: Dawn Escapes

Drop D Tuning

G ------------12-      -----------11-9-11-9
D /11-x--11-x--x-      /11-x--11-x---------
A /9--x--/9-x-10- (3x) /9--x--/9-x---------
D /9--x--/9-x----      /9--x--/9-x---------

Verse
Synth stuff plays Bm, then guitar plays E5

Pre-chorus
G5  A5

Chorus
D 9--11-7-5-4-5-2
A 9-----------5-2
D 9-----------5-2

Bridge
D 5-x-x-7-x-x-2-x-x-0-2-5-7-9
A 5-x-x-7-x-x-2-x-x-0-2-5-7-9
D 5-x-x-7-x-x-2-x-x-0-2-5-7-9

Thats it.  Just put all of it in order.  Falling Up rocks hard!

Comments about this tab

B-rad - 2005-11-14

Dude the intro goes from E to F# then to the G, I don't have the time to tab this out, and the diddly in the chorus goes A--10-10-10-9-9-9-7-5. Ok? ok.


Shaneathin86 - 2005-11-16

i think u got a lot closer to the intro and chorus thingy then this B-rad fella would have u think... actually his stuff sounded rather awful... not a bad tab seems a little incomplete but good for what it is


joellaw44 - 2005-11-16

I'll admit its not too great because I tabbed it off purevolume before the cd came out. It just took a while to get it posted.


Cheese_Monkey - 2005-11-20

good job man, congratz on getting it tabbed out on purevolume ahead of time. i figured out the piano part for Contact with Purevolume too!


Adam K - 2005-11-28

Here's the intro

Intro
G-9s11---9s11---12- -9s11---9s11--11-9-11-9-
D-9s11-x-9s11-x--x- -9s11-x-9s11-x----------
A-7s-9-x-7s-9-x-10- (3x) -7s-9-x-7s-9-x----------
D-7s-9-x-7s-9-x---- -7s-9-x-7s-9-x----------


Adam K - 2005-11-28

Oops!
s=slide
G-9s11---9s11---12- -9s11---9s11--11-9-11-9-
D-9s11-x-9s11-x--x- -9s11-x-9s11-x----------
A-7s-9-x-7s-9-x-10- (3x) -7s-9-x-7s-9-x----------
D-7s-9-x-7s-9-x---- -7s-9-x-7s-9-x----------


Adam K - 2005-11-28

Oops!
s=slide
G-9s11---9s11---12- -9s11---9s11--11-9-11-9-
D-9s11-x-9s11-x--x- -9s11-x-9s11-x----------
A-7s-9-x-7s-9-x-10- (x3) -7s-9-x-7s-9-x----------
D-7s-9-x-7s-9-x---- -7s-9-x-7s-9-x----------


Adam K - 2005-11-28

The alignment keeps screwin' up.The 7 goes under the 9.


Add a comment/correction

Complimentary Christian Ringtones
Dadamobile and CGR have teamed up to bring your favorite Christian artists right to your phone. Sign up today and get 10 complementary ringtones!
Tab Country
Did you know CGR has a sister site w/ country guitar tabs? Well we do! Its called Tab Country. It has a great archive with a lot of country tabs.
Rockin Tabs
Are you looking for a site that has rock guitar tabs? Then Rockintabs.com is the place for you. It is a budding site with many rock guitar tabs. Submit your tab today.
Tab Gallery
Tab Gallery has a compilation of christian, rock, and country tabs all in one place. Come visit us.