Guitar Tabs
song title    band name

Join Us Today!

Don't strum alone...
be a part of the largest online Christian music community. Browse thousands of guitar tabs and chat w/ musicians like yourself.


It's Free!

This tab has not yet been rated for accuracy.Sorry, but you must be logged in to rate this tab.
Click here to log-in, or you can click here to register.
(Registration is free)

All songs owned by corresponding publishing company. If you make copies of any song on this website, be sure to report your usage to CCLI.
Submitted by: bpeery

In the Middle of Me (Intro) Tab
Todd Agnew
Copyright: 2005 Ardent/Koala Music (Admin. by Ardent Music LLC) 
CCLI Song No. 4432353 
Album: Reflection of Something

       |Harmonic |
E ---------------------------------------------------------------------------------------
B ----------------------------------------------------------------x----------------------
G ------7------7-----x11--11s13--13--4s6s4--s6-s4---------9-7-x7-9-9-----------------
D ------7------7--11-x9--------------------------------------97-x7-7-7-----------------
A ------7------7-----x9---9--s11--11--2-s4s2--s4--s2--^2-0-------x------5-4-4-h5-L4-2---
E x1-x1x1-x1----9----------------------------------------------------------------------

  
E ---------------------------------------------------------------------------------------
B -------------------------------------------------------------7--h9-7-7-7-7-7-----------
G ----x1111s13-13--4s6s4--s6-s4--------9-7-------------7-7--h9-7-7-7-7-7-----------
D -11-x9------------------------------------9--7--------7-h9----------------------------
A ----x9--9-s11-11--2-s4s2--s4--s2--^2-0-------7-7-s9----------------------------------
E -9-------------------------------------------------------------------------------------

E ------2-s4-4---------------------------------------------------------------------------
B --2-0----------------------------------------------------------------------------------
G ------------------4s6s4--s6-s4--------------9-h11-s13-s11---------------------------
D -----------------------------------------9-h11-9--9--s11-s9----------------------------
A ------------------2-s4s2--s4--s2--^2-0------------------------------------------------
E ---------------------------------------------------------------------------------------

E ---------------------------------------------------------------------------------------
B ---------------------------------------------------------------------------------------
G ----x11--11s13-13--4s6s4--s6-s4-------9-6-9----------------------------------------
D -11-x9------------------------------------7---7----------------------------------------
A ----x9---9--s11-11--2-s4s2--s4--s2--^2-0----------------------------------------------
E -9-------------------------------------------------------------------------------------

This is a pretty good start. I still can't get it all played as fast as the CD, but I think it pretty close.
><}}}"> ... God speed to the fingers !

Comments about this tab

jpierce238 - 2006-09-19

slow down dude, you're making it hard on yourself.


Add a comment/correction

Complimentary Christian Ringtones
Dadamobile and CGR have teamed up to bring your favorite Christian artists right to your phone. Sign up today and get 10 complementary ringtones!
Tab Country
Did you know CGR has a sister site w/ country guitar tabs? Well we do! Its called Tab Country. It has a great archive with a lot of country tabs.
Rockin Tabs
Are you looking for a site that has rock guitar tabs? Then Rockintabs.com is the place for you. It is a budding site with many rock guitar tabs. Submit your tab today.
Tab Gallery
Tab Gallery has a compilation of christian, rock, and country tabs all in one place. Come visit us.