Guitar Tabs
song title    band name

Join Us Today!

Don't strum alone...
be a part of the largest online Christian music community. Browse thousands of guitar tabs and chat w/ musicians like yourself.


It's Free!

This tab has been rated a 3.50 out of 5 for accuracy. (2 votes)Sorry, but you must be logged in to rate this tab.
Click here to log-in, or you can click here to register.
(Registration is free)

All songs owned by corresponding publishing company. If you make copies of any song on this website, be sure to report your usage to CCLI.
Submitted by: Dare

Artist-Blindside
Album-The Great Depression
Song-Fell In Love With the Game

This isn't a whole lot different than the other tab up...but hopefully it's more correct.

Intro (2x)

e|------------------------
B|------------------------
G|-----------8888-99999999
D|-101010-99-xxxx-xxxxxxxx
A|-101010-99-6666-77777777
D|-101010-99-------------

Verse 1 (3x)
e|------
B|----------------------------------
G|-12   11               8888 99999
D|- x(4x)x (4x)101010 99 xxxx xxxxx
A|-10    9     101010 99 6666 77777
D|--*----*-----101010 99 ---------

*'s mean it's played choppy...stacotto i think is what it's called.
then you play...

E|
B|-------------------
G|12    11   12   12
D|x (4x)x(4x)x(4x)x(4x)
A|10    9    10   9
D|*-----*----*----*---

Chours 1(2x)

e|--------------------------------------------             
B|---------------12--------------------12xx 12xx 12x 12
G|-------   9    x (8x)           7    x xx x xx x x x
D|-5     99 x(8x)9----- 5    9    x(4x)9 xx 9 xx 9 x 9
A|-5(14x)99 7 --------- 5(8x)9(4x)9  
D|-5-----99------------ 5    9--------------

Verse 2 (3x)
e|------
B|----------------------------------
G|-12   11               8888 99999
D|- x(4x)x (4x)101010 99 xxxx xxxxx
A|-10    9     101010 99 6666 77777
D|--*----*-----101010 99 ---------

E|
B|-------------------
G|12    11   12   12
D|x (4x)x(4x)x(4x)x(4x)
A|10    9    10   9
D|*-----*----*----*---

Chours 2(2x)

e|--------------------------------------------             
B|---------------12--------------------12xx 12x12xx 12x12
G|-------   9    x (8x)-----------7----x xx x xx xx x xx
D|-5     99 x(8x)9----- 5----9----x(4x)9 xx 9 x9 xx 9 x9
A|-5(14x)99 7 --------- 5(8x)9(4x)9  
D|-5-----99------------ 5----9--------------

Bridge (2x)

e|--------------------------------------------------            
B|-------------------------------12xx 12x 12xx 12x12
G|-9----8----5----4----9----8----x xx x x x xx x x x
D|-x(8x)x(8x)x(8x)x(8x)x(8x)x(8x)9 xx 9 x 9 xx 9x x9 
A|-7----6----3----2----7----6-----------------------
D|---------------------------------------------------

Verse 3
e|-----------------------------
B|------------------------------
G|-12~---11~-----------888-99999
D|- x----x---101010-99-xxx xxxxx  (2x)
A|-10~---9~--101010-99-666 77777
D|-----------101010-99----------

E|-----
B|-----
G|12~--
D|x----
A|10~--  
D|-----

Chours 3(2x)

e|--------------------------------------------             
B|---------------12--------------------12xx 12x12xx 12x12
G|-------   9    x (8x)           7    x xx x xx xx x xx
D|-5     99 x(8x)9----- 5    9    x(4x)9 xx 9 x9 xx 9 x9
A|-5(14x)99 7 --------- 5(8x)9(4x)9  
D|-5-----99------------ 5    9--------------

Outro (4x)
e|------------------------
B|------------------------
G|-----------888-99999999
D|-101010-99-xxx-xxxxxxxx
A|-101010-99-666-77777777
D|-101010-99-------------
I'm pretty sure that there is one more chord in the verse but I dont' know what it is.
And I have no idea about the chords for the chours....they sound kinda right.mabye.
Yes I know that there are two guitars but this tab
is for one guitar and I couldn't 
figure out the stuff for the other one.Hopefully this isn't to bad.
If you want to correct it go ahead.Just don't yell at me to much.
Dare


Comments about this tab

Dare - 2005-10-22

Uhh sorry the rhythm isn't quite right;you kinda have to listen to the song to get it.and i sorta think that the highest chord in the chours should be
B 12
G14 instead of x
Dx 9
A16 but i'm not really sure if either are right...


pxlRawker - 2005-11-20

This tab seems more correct + easier to follow than the other one, so ... awesome job! I have one correction though, that both tabs seemed to have missed. In the verses, the "chords" you play for the shots should look like this:
e|------
B|--8----8-------------------------
G|--9 8 8888 99999
D|- x(4x)x (4x)101010 99 xxxx xxxxx
A|--7 6 101010 99 6666 77777
D|--*----*-----101010 99 ----------

E|
B|8-----8----8----8----
G|9 8 9 8
D|x (4x)x(4x)x(4x)x(4x)
A|7 6 7 6
D|*-----*----*----*----

This is what sounds right to me, 'cause the shots seem to have more umph in them than just plain octaves.
Anyway, awesome tab!


pxlRawker - 2005-11-20

Whoa, that looked super messed, haha.
e|--------------------------------
B|-8----8-------------------------
G|-9----8---------------8888-99999
D|-x(4x)x(4x)-101010-99-xxxx-xxxxx
A|-7----6-----101010-99-6666-77777
D|-*----*-----101010-99-----------

E|---------------------
B|-8----8----8----8----
G|-9----8----9----8----
D|-x(4x)x(4x)x(4x)x(4x)
A|-7----6----7----6----
D|-*----*----*----*----

I hope this works better!


sXcountry - 2005-11-26

yeah, this tab is easier to read than mine, but there is only one guitar. the correction above this comment sounds good.


Dare - 2005-11-29

I meant the acoustic guitar at the end of the song. :)


Dare - 2005-11-29

haha no it's not acoustic guitar...just a weird ending...that i didn't figure out.and it would be sweet if someone did because i can't get it.


crazyheadbanger - 2006-01-05

i figured out the solo. but i don't know how 2 do tabs but ill try.

e------------------------------------------------
b------------------------------------------------
g--10----14--------------10----14(pull string)------
d--------------13--12------------------13--12--12
a-------------------------------------------------
d-------------------------------------------------

and there it is. if u don't get it sorry. this is my first tab. (solo) im new. i can pick things out w/ my ears really good 2. well im gonna go. god bless.


akaukal - 2006-04-17

man what is with the Drop D???


xDisconnektiex - 2006-05-27

Yeah.. Guys, it's not in drop d. i posted a tab of this song and it sounds perfectly fine without being dropped.


Add a comment/correction

Complimentary Christian Ringtones
Dadamobile and CGR have teamed up to bring your favorite Christian artists right to your phone. Sign up today and get 10 complementary ringtones!
Tab Country
Did you know CGR has a sister site w/ country guitar tabs? Well we do! Its called Tab Country. It has a great archive with a lot of country tabs.
Rockin Tabs
Are you looking for a site that has rock guitar tabs? Then Rockintabs.com is the place for you. It is a budding site with many rock guitar tabs. Submit your tab today.
Tab Gallery
Tab Gallery has a compilation of christian, rock, and country tabs all in one place. Come visit us.