Guitar Tabs
song title    band name

Join Us Today!

Don't strum alone...
be a part of the largest online Christian music community. Browse thousands of guitar tabs and chat w/ musicians like yourself.


It's Free!

This tab has been rated a 4.70 out of 5 for accuracy. (10 votes)Sorry, but you must be logged in to rate this tab.
Click here to log-in, or you can click here to register.
(Registration is free)

All songs owned by corresponding publishing company. If you make copies of any song on this website, be sure to report your usage to CCLI.
Submitted by: supaduk

Stars, this is an awesome song off Switchfoot's newest CD - "Nothing IS Sound."
This song's played in drop D so remember to tune it to that before whipping out 
some Stars.  Have fun!

*Intro
Gtr 1,2,3
e|--------------------------------------------------------------------------------|
B|--------------------------------------------------------------------------------|
G|-------6-7-----11------9-----131614-----6-7-----11------9---9-9-9---------------|
D|-0-0-0-x-x-0-0-x-0-0-0-x-0-0-x-x-x--0-0-x-x-0-0-x-0-0-0-x-0-x-x-x---------------|
A|-0-0-0-4-5-0-0-9-0-0-0-7-0-0-111412-0-0-4-5-0-0-9-0-0-0-7-0-7-7-7---------------|
D|-0-0-0-----0-0---0-0-0---0-0--------0-0-----0-0---0-0-0---0---------------------|



Gtr 1,2,3
e|--------------------------------------------------------------------------------|
B|--------------------------------------------------------------------------------|
G|---6---6-7-----11------9-----131614-----6-7-----11------9---9-9-9---------------|
D|-0-x-0-x-x-0-0-x-0-0-0-x-0-0-x-x-x--0-0-x-x-0-0-x-0-0-0-x-0-x-x-x---------------|
A|-0-4-0-4-5-0-0-9-0-0-0-7-0-0-111412-0-0-4-5-0-0-9-0-0-0-7-0-7-7-7---------------|
D|-0---0-----0-0---0-0-0---0-0--------0-0-----0-0---0-0-0---0---------------------|



**Sequence 1
Gtr 1,2,3
e|--------------------------------------------------------------------------------|
B|--------------------------------------------------------------------------------|
G|-------6-7-----11------9-----6-7--------5-6-----11------9--9-9-9----------------|
D|-0-2-0-x-x-0-7-x-0-4-5-x-0-2-x-x--0-2-0-x-x-0-7-x-0-4-5-x--x-x-x----------------|2x
A|-0-2-0-4-5-0-7-9-0-4-5-7-0-2-4-5--0-2-0-4-5-0-7-9-0-4-5-7--7-7-7----------------|
D|-0-2-0-----0-7---0-4-5---0-2------0-2-0-----0-7---0-4-5-------------------------|



*Verse 1
Gtr 1
e|-x--------------------------------------------------x---------------------------|
B|-3--------------------------------------------------3---------------------------|
G|-2--------------------------------------------------2---------------------------|
D|-0------------------------------------5-------------0---------------------------|
A|-0------------------------------------5-------------0---------------------------|
D|-0------------------------------------5-------------0---------------------------|
Gtr 2
e|--------------------------------------------------------------------------------|
B|--------------------------------------------------------------------------------|
G|--------------------------------------------------------------------------------|
D|-12-----------------------------------5-------------12--------------------------|
A|-12-----------------------------------5-------------12--------------------------|
D|-12-----------------------------------5-------------12--------------------------|
Gtr 3
e|--------------------------------------------------------------------------------|
B|--------------------------------------------------------------------------------|
G|--------------------------------------------------------------------------------|
D|-12-----------------------------------5-------------12--------------------------|
A|-12-----------------------------------5-------------12--------------------------|
D|-12-----------------------------------5-------------12--------------------------|
   

Gtr 1
e|--------------------------------------------------------------------------------|
B|--------------------------------------------------------------------------------|
G|----------------------------------------------------7-----------------6---------|
D|------------------10--------------5-----------------7-----------------7---------|
A|------------------10--------------5-----------------7-----------------7---------|
D|------------------10--------------5-----------------7-----------------7---------|
Gtr 2
e|--------------------------------------------------------------------------------|
B|--------------------------------------------------------------------------------|
G|----------------------------------------------------7-----------------6---------|
D|------------------10--------------12----------------7-----------------7---------|
A|------------------10--------------12----------------7-----------------7---------|
D|------------------10--------------12----------------7-----------------7---------|
Gtr 3
e|--------------------------------------------------------------------------------|
B|--------------------------------------------------------------------------------|
G|----------------------------------------------------7-----------------6---------|
D|------------------10--------------12----------------7-----------------7---------|
A|------------------10--------------12----------------7-----------------7---------|
D|------------------10--------------12----------------7-----------------7---------|
   

Gtr 1
e|--------------------------x------------------------------------------------x----|
B|--------------------------3------------------------------------------------3----|
G|--------------------------2------------------------------------------------2----|
D|--------------------------0------------------------------5-----------------0----|
A|--------------------------0------------------------------5-----------------0----|
D|--------------------------0------------------------------5-----------------0----|
Gtr 2
e|--------------------------x------------------------------------------------x----|
B|--------------------------3------------------------------------------------3----|
G|--------------------------2------------------------------------------------2----|
D|--------------------------0------------------------------5-----------------0----|
A|--------------------------0------------------------------5-----------------0----|
D|--------------------------0------------------------------5-----------------0----|
Gtr 3
e|--------------------------------------------------------------------------------|
B|--------------------------------------------------------------------------------|
G|--------------------------14-------------------------------------16-----19--14--|
D|--------------------------x--------------------------------------x------x---x---|
A|--------------------------12-------------------------------------14-----17--12--|
D|--------------------------------------------------------------------------------|
   

Gtr 1
e|--------------------------------------------------------------------------------|
B|--------------------------------------------------------------------------------|
G|-----------------------------------------------7-----------------6--------------|
D|----------------10-----------5-----------------7-----------------7--------------|
A|----------------10-----------5-----------------7-----------------7--------------|
D|----------------10-----------5-----------------7-----------------7--------------|
Gtr 2
e|--------------------------------------------------------------------------------|
B|--------------------------------------------------------------------------------|
G|-----------------------------------------------7-----------------6--------------|
D|----------------10-----------5-----------------7-----------------7--------------|
A|----------------10-----------5-----------------7-----------------7--------------|
D|----------------10-----------5-----------------7-----------------7--------------|
Gtr 3
e|--------------------------------------------------------------------------------|
B|--------------------------------------------------------------------------------|
G|-16---------19--17-----------12----------------9--------------------------------|
D|-x----------x---x------------x-----------------x--------------------------------|
A|-14---------17--15-----------10----------------7--------------------------------|
D|--------------------------------------------------------------------------------|
    

Gtr 1,2,3
e|--------------------------------------------------------------------------------|
B|--------------------------------------------------------------------------------|
G|--------------------------------------------------------------------------------|
D|--------------------------7---------9-----------------11--------12--------------|
A|--------------------------5---------7-----------------9---------10--------------|
D|--------------------------5---------7-----------------9---------10--------------|
    

*Chorus
Gtr 1,2
e|-------------------------x------------------------------------------------------|
B|-------------------------3------------------------------------------------------|
G|-------------------------2------------------------------------------------------|
D|-------------------------0---------------------------5--------------------------|
A|-------------------------0---------------------------5--------------------------|
D|-------------------------0---------------------------5--------------------------|
Gtr 3
e|--------------------------------------------------------------------------------|
B|--------------------------------------------------------------------------------|
G|-------------------------119-7-2---------------------119-7----------------------|
D|-------------------------x-x-x-0---------------------x-x-x-5--------------------|
A|-------------------------9-7-5-0---------------------9-7-5-5--------------------|
D|-----------------------------------------------------------5--------------------|
   

Gtr 1,2
e|--------------------------------------------------------------------------------|
B|--------------------------------------------------------------------------------|
G|----------------------------------------------------6-7-----11------9--9-9-9----|
D|--------------------10----5-------------------0-2-0-x-x-0-7-x-0-4-5-x--x-x-x----|
A|--------------------10----5-------------------0-2-0-4-5-0-7-9-0-4-5-7--7-7-7----|
D|--------------------10----5-------------------0-2-0-----0-7---0-4-5-------------|
Gtr 3
e|--------------------------------------------------------------------------------|
B|--------------------------------------------------------------------------------|
G|--------------------119-7---------------------------6-7-----11------9--9-9-9----|
D|--------------------x-x-x-5-------------------0-2-0-x-x-0-7-x-0-4-5-x--x-x-x----|
A|--------------------9-7-5-5-------------------0-2-0-4-5-0-7-9-0-4-5-7--7-7-7----|
D|--------------------------5-------------------0-2-0-----0-7---0-4-5-------------|
    

Gtr 1,2
e|--------------------------------------------------------------------------------|
B|--------------------------------------------------------------------------------|
G|---------------------7----------------------------------------------------------|
D|--5------------2-----7-----------------***Play Sequence 1 once------------------|
A|--5------------2-----7----------------------------------------------------------|
D|--5------------2-----7----------------------------------------------------------|
Gtr 3
e|--------------------------------------------------------------------------------|
B|--------------------------------------------------------------------------------|
G|--119-7--------119-7-7----------------------------------------------------------|
D|--x-x-x-5------x-x-x-7-----------------***Play Sequence 1 once------------------|
A|--9-7-5-5------9-7-5-7----------------------------------------------------------|
D|--------5------------7----------------------------------------------------------|
   

*Verse 2
Gtr 1
e|-x--------------------------------------------------x---------------------------|
B|-3--------------------------------------------------3---------------------------|
G|-2--------------------------------------------------2---------------------------|
D|-0--------------------------------------5-----------0---------------------------|
A|-0--------------------------------------5-----------0---------------------------|
D|-0--------------------------------------5-----------0---------------------------|
Gtr 2
e|--------------------------------------------------------------------------------|
B|--------------------------------------------------------------------------------|
G|--------------------------------------------------------------------------------|
D|-12-------------------------------------5-----------12--------------------------|
A|-12-------------------------------------5-----------12--------------------------|
D|-12-------------------------------------5-----------12--------------------------|
Gtr 3
e|--------------------------------------------------------------------------------|
B|--------------------------------------------------------------------------------|
G|-14------------------------------------------16-19--14--------------------------|
D|-x-------------------------------------------x--x---x---------------------------|
A|-12------------------------------------------14-17--12--------------------------|
D|--------------------------------------------------------------------------------|
   

Gtr 1
e|--------------------------------------------------------------------------------|
B|--------------------------------------------------------------------------------|
G|---------------------------------------------------7-----------------6----------|
D|---------------------10-------------5--------------7-----------------7----------|
A|---------------------10-------------5--------------7-----------------7----------|
D|---------------------10-------------5--------------7-----------------7----------|
Gtr 2
e|--------------------------------------------------------------------------------|
B|--------------------------------------------------------------------------------|
G|---------------------------------------------------7-----------------6----------|
D|---------------------10-------------12-------------7-----------------7----------|
A|---------------------10-------------12-------------7-----------------7----------|
D|---------------------10-------------12-------------7-----------------7----------|
Gtr 3
e|--------------------------------------------------------------------------------|
B|--------------------------------------------------------------------------------|
G|-16---------19-------17-------------12-------------9----------------------------|
D|-x----------x--------x--------------x--------------x----------------------------|
A|-14---------17-------15-------------10-------------7----------------------------|
D|--------------------------------------------------------------------------------|
    
Gtr 1
e|------------------------------x------------------------------------------x------|
B|------------------------------3------------------------------------------3------|
G|------------------------------2------------------------------------------2------|
D|------------------------------0---------------------------5--------------0------|
A|------------------------------0---------------------------5--------------0------|
D|------------------------------0---------------------------5--------------0------|
Gtr 2
e|--------------------------------------------------------------------------------|
B|--------------------------------------------------------------------------------|
G|--------------------------------------------------------------------------------|
D|------------------------------12--------------------------5--------------12-----|
A|------------------------------12--------------------------5--------------12-----|
D|------------------------------12--------------------------5--------------12-----|
Gtr 3
e|--------------------------------------------------------------------------------|
B|--------------------------------------------------------------------------------|
G|------------------------------14---------------------------------16---19-14-----|
D|------------------------------x----------------------------------x----x--x------|
A|------------------------------12---------------------------------14---17-12-----|
D|--------------------------------------------------------------------------------|
    

Gtr 1
e|--------------------------------------------------------------------------------|
B|--------------------------------------------------------------------------------|
G|-------------------------------------------7----------------6-------------------|
D|-------------------10-----------5----------7----------------7-------------------|
A|-------------------10-----------5----------7----------------7-------------------|
D|-------------------10-----------5----------7----------------7-------------------|
Gtr 2
e|--------------------------------------------------------------------------------|
B|--------------------------------------------------------------------------------|
G|-------------------------------------------7----------------6-------------------|
D|-------------------10-----------12---------7----------------7-------------------|
A|-------------------10-----------12---------7----------------7-------------------|
D|-------------------10-----------12---------7----------------7-------------------|
Gtr 3
e|--------------------------------------------------------------------------------|
B|--------------------------------------------------------------------------------|
G|-16---------19-----17-----------12---------9------------------------------------|
D|-x----------x------x------------x----------x------------------------------------|
A|-14---------17-----15-----------10---------7------------------------------------|
D|--------------------------------------------------------------------------------|
   

Gtr 1,2,3
e|--------------------------------------------------------------------------------|
B|--------------------------------------------------------------------------------|
G|--------------------------------------------------------------------------------|
D|--------------------------7---------9-----------------11--------12--------------|
A|--------------------------5---------7-----------------9---------10--------------|
D|--------------------------5---------7-----------------9---------10--------------|
   


*Chorus
Gtr 1,2
e|-------------------------x------------------------------------------------------|
B|-------------------------3------------------------------------------------------|
G|-------------------------2------------------------------------------------------|
D|-------------------------0---------------------------5--------------------------|
A|-------------------------0---------------------------5--------------------------|
D|-------------------------0---------------------------5--------------------------|
Gtr 3
e|--------------------------------------------------------------------------------|
B|--------------------------------------------------------------------------------|
G|-------------------------119-7-2---------------------119-7----------------------|
D|-------------------------x-x-x-0---------------------x-x-x-5--------------------|
A|-------------------------9-7-5-0---------------------9-7-5-5--------------------|
D|-----------------------------------------------------------5--------------------|
   

Gtr 1,2
e|--------------------------------------------------------------------------------|
B|--------------------------------------------------------------------------------|
G|----------------------------------------------------6-7-----11------9--9-9-9----|
D|--------------------10----5-------------------0-2-0-x-x-0-7-x-0-4-5-x--x-x-x----|
A|--------------------10----5-------------------0-2-0-4-5-0-7-9-0-4-5-7--7-7-7----|
D|--------------------10----5-------------------0-2-0-----0-7---0-4-5-------------|
Gtr 3
e|--------------------------------------------------------------------------------|
B|--------------------------------------------------------------------------------|
G|--------------------119-7---------------------------6-7-----11------9--9-9-9----|
D|--------------------x-x-x-5-------------------0-2-0-x-x-0-7-x-0-4-5-x--x-x-x----|
A|--------------------9-7-5-5-------------------0-2-0-4-5-0-7-9-0-4-5-7--7-7-7----|
D|--------------------------5-------------------0-2-0-----0-7---0-4-5-------------|
   

Gtr 1,2
e|--------------------------------------------------------------------------------|
B|--------------------------------------------------------------------------------|
G|---------------------7----------------------------------------------------------|
D|--5------------2-----7-----------------------------***Play Sequence 1 once------|
A|--5------------2-----7----------------------------------------------------------|
D|--5------------2-----7----------------------------------------------------------|
Gtr 3
e|--------------------------------------------------------------------------------|
B|--------------------------------------------------------------------------------|
G|--119-7--------119-7-7----------------------------------------------------------|
D|--x-x-x-5------x-x-x-7-----------------------------***Play Sequence 1 once------|
A|--9-7-5-5------9-7-5-7----------------------------------------------------------|
D|--------5------------7----------------------------------------------------------|
   

Gtr 1,2,3
e|--------------------------------------------------------------------------------|
B|--------------------------------------------------------------------------------|
G|-----------------6-7-----11------9--9-9-9---------------------------------------|
D|--5--4--7--0-2-0-x-x-0-7-x-0-4-5-x--x-x-x--5--4--7------------------------------|
A|--5--4--7--0-2-0-4-5-0-7-9-0-4-5-7--7-7-7--5--4--7------------------------------|
D|--5--4--7--0-2-0-----0-7---0-4-5-----------5--4--7------------------------------|
   

Gtr 1,2,3
e|--------------------------------------------------------------------------------|
B|--------------------------------------------------------------------------------|
G|------------------------------------4-------------------------------------------|
D|-7---------9-----------------7------5---7-------------9-----------------11---12-|
A|-5---------7-----------------4------5---5-------------7-----------------9----10-|
D|-5---------7-----------------4------5---5-------------7-----------------9----10-|
   

Gtr 1,2,3
e|--------------------------------------------------------------------------------|
B|--------------------------------------------------------------------------------|
G|--------------------------------------------------------------------------------|
D|--------------------------------------------------------------------------------|
A|--------------------------------------------------------------------------------|
D|--------------------------------------------------------------------------------|
   

Gtr 1,2
e|--------------------------------------------------------------------------------|
B|--------------------------------------------------------------------------------|
G|----------------------------------------------------6-7-----11------9-----------|
D|--------------------10----5-------------------0-2-0-x-x-0-7-x-0-4-5-x-2-2-2-----|
A|--------------------10----5-------------------0-2-0-4-5-0-7-9-0-4-5-7-2-2-2-----|
D|--------------------10----5-------------------0-2-0-----0-7---0-4-5---2-2-2-----|
Gtr 3
e|--------------------------------------------------------------------------------|
B|--------------------------------------------------------------------------------|
G|----------------------------------------------------6-7-----11------9-----------|
D|--------------------10----12------------------0-2-0-x-x-0-7-x-0-4-5-x-2-2-2-----|
A|--------------------10----12------------------0-2-0-4-5-0-7-9-0-4-5-7-2-2-2-----|
D|--------------------10----12------------------0-2-0-----0-7---0-4-5---2-2-2-----|
   

Gtr 1,2,3
e|--------------------------------------------------------------------------------|
B|--------------------------------------------------------------------------------|
G|--------------------7-----------------------------------------------------------|
D|-5------------2-----7-----------------------------------------------------------|
A|-5------------2-----7-----------------------------------------------------------|
D|-5------------2-----7-----------------------------------------------------------|
   



Gtr 1,2,3
e|--------------------------------------------------------------------------------|
B|--------------------------------------------------------------------------------|
G|-------------------6-7-----11------9-----6-7--------6-7-----11------9--9-9-9----|
D|-------------0-2-0-x-x-0-7-x-0-4-5-x-0-2-x-x--0-2-0-x-x-0-7-x-0-4-5-x--x-x-x----|
A|-------------0-2-0-4-5-0-7-9-0-4-5-7-0-2-4-5--0-2-0-4-5-0-7-9-0-4-5-7--7-7-7----|
D|-------------0-2-0-----0-7---0-4-5---0-2------0-2-0-----0-7---0-4-5-------------|
   

Gtr 1
e|--------------------------------------------------------------------x-----------|
B|--------------------------------------------------------------------3-----------|
G|-------6-7-----11------9-----6-7--------6-7-----11------9-----6-7---2-----------|
D|-0-2-0-x-x-0-7-x-0-4-5-x-0-2-x-x--0-2-0-x-x-0-7-x-0-4-5-x-0-2-x-x---0-*ring out*|
A|-0-2-0-4-5-0-7-9-0-4-5-7-0-2-4-5--0-2-0-4-5-0-7-9-0-4-5-7-0-2-4-5---0-----------|
D|-0-2-0-----0-7---0-4-5---0-2------0-2-0-----0-7---0-4-5---0-2-------0-----------|
Gtr 2
e|--------------------------------------------------------------------------------|
B|--------------------------------------------------------------------------------|
G|-------6-7-----11------9-----6-7--------6-7-----11------9-----6-7---7-----------|
D|-0-2-0-x-x-0-7-x-0-4-5-x-0-2-x-x--0-2-0-x-x-0-7-x-0-4-5-x-0-2-x-x---x-*ring out*|
A|-0-2-0-4-5-0-7-9-0-4-5-7-0-2-4-5--0-2-0-4-5-0-7-9-0-4-5-7-0-2-4-5---5-----------|
D|-0-2-0-----0-7---0-4-5---0-2------0-2-0-----0-7---0-4-5---0-2-------0-----------|
Gtr 3
e|-x-----x---------x-----x----------x-------x-----x--x------x---------x-----------|
B|-x-----x---------x-----x----------x-------x-----x--x------x---------x-----------|
G|-16----14--------21----19---------14------12----11-19-----12--------9-----------|
D|-x-----x---------x-----x----------x-------x-----x--x------x---------x-*ring out*|
A|-14----12--------19----17---------12------10----9--17-----10--------7-----------|
D|-x-----x---------x-----x----------x-------x-----x--x------x---------0-----------|

Comments about this tab

vy330 - 2006-04-15

actually, i think the ending for guitar 3 goes like this:


e|-x---x---x---x---x---x---x--x---x---x---|
B|-x---x---17--15--x---x---x--15--x---x---|
G|-14--12--x---x---14--12--11-x---12--11--|
D|-x---x---14--12--x---x---x--12--x---x---|
A|-12--10--x---x---12--10--9--x---10--9---|
E|-x---x---x---x---x---x---x--x---x---x---|

atleast thats how i play it


vy330 - 2006-04-15

er, I meant to say:


e|-x---x---x---x---x---x---x--x---x---x---|
B|-x---x---17--15--x---x---x--15--x---x---|
G|-16--14--x---x---14--12--11-x---12--11--|
D|-x---x---14--12--x---x---x--12--x---x---|
A|-14--12--x---x---12--10--9--x---10--9---|
E|-x---x---x---x---x---x---x--x---x---x---|


graysondh - 2006-04-29

I think this tab is really close. The only thing i noticed was "sequence 1" is a little off.


Einstein - 2006-05-08

Yeah, sequance 1 not supposed to be that hard to play. Try playing that at the speed they play the song at. That's really hard. Try something like:

e---------------------------------
b---------------------------------
g---------------------------------4x
d-----------------------*---------
a-0-2-0-4-5-0-7-9-0-4-5-7-0-2-4-5- g-9-9-9-9
d-0-2-0-----0-7---0-4-5---0-2----- d-x-x-x-x
a-7-7-7-7
When you get to the * the 2nd time and 4th time, play: d-x-x-x-x

Otherwise it's a pretty good tab. Overall alot better than most of the other Stars taber wannabe's out there.


Einstein - 2006-05-08

Yeah, sequance 1 not supposed to be that hard to play. Try playing that at the speed they play the song at. That's really hard. Try something like:

e---------------------------------
b---------------------------------
g---------------------------------4x
d-----------------------*---------
a-0-2-0-4-5-0-7-9-0-4-5-7-0-2-4-5-
d-0-2-0-----0-7---0-4-5---0-2-----

When you get to the * the 2nd time and 4th time, play it with the nine on the g string.

Otherwise it's a pretty good tab. Overall alot better than most of the other Stars taber wannabe's out there.


theguitarman388 - 2006-05-24

I agree w/ graysondh, but other than that, you deserve some sweet props for this tab.


GUITAR MASTA - 2007-02-06

dude that tab ROCKS!!!totaly man


Naragrath - 2007-02-23

Einstien is correct.
Good job to both of you guys!
Jdc


mi_koala - 2007-03-07

hmm this tab looks very familiar.. oh yes! it looks like the tab that I WROTE! that's right.. its here.. http://ultimate-guitar.com/tabs/s/switchfoot/stars_tab.htm it may not look like the one that's posted on here but I've obviously updated it and put some minor changes.. oh wait have a look at this too! http://www.christianguitar.org/csong17954/Switchfoot-Happy-Is-A-Yuppie-Word
doesnt this look familiar as well.. http://ultimate-guitar.com/tabs/s/switchfoot/happy_is_a_yuppie_word_tab.htm

tsk tsk tsk.. for shame...seriously, what sort of person just copy/pastes someone's work who obviously put a lot of effort into it and takes credit for it? the least you could've done was ask permisison to post it on other sites (other people have done so already and I thank them for extending the courtesy). I couldn't be bothered being mad, but when somebody does something, they should be given due credit. don't you guys agree?


smoking_alco - 2007-03-08

this feature of the site instructs us to make 'minor corrections or useful comments' ...well, it would be USEFUL for all of you out there to know that this tab has been copied and pasted from someone else's tab. All their hard work and you're trying to take credit for it. Ha! you're pathetic, I bet you can't even play the song, let alone have half a brain to make a tab as good as this...and word is that your other tabs suck! I feel sorry for you..you should be ashamed of yourself...


WashburnGuitar9 - 2007-03-20

hey mi_koala!! show him some respect!! he probably didny copy you, but got it by playing it himself!!! show some respect! if your a christian then act like one!!!! Even if he/she who made this tab copied you, he probably didnt ask you 'cause he didnt know your e-mail address!!! next time look at all of your options!


mi_koala - 2007-03-21

well there IS something called the ultimate-guitar forums.. it's as easy as clicking my username on the tab page which brings you to a page where clearly you can see you are given a choice to either send me a pm or EMAIL me.. as i've already mentioned, that's how people have gotten in contact with me to borrow/use it for their site. and as for acting like a christian? what's up with that? i was merely pointing out what this guy should've done. i made that comment with utmost respect, i said so myself that im not mad. im just letting people know that there IS a proper way of doing things. i just take these things pretty seriously. you'll know what i mean when you make something that you've spena a LOT of time doing and for it to be flaunted around by someone else and calling it their own..


5isakoolnumber - 2007-03-30

well if he did copy u then shame on him.(who knows if he copied u or not??)
y not ask him....


WashburnGuitar9 - 2007-04-09

nah this isnt copied i saw yours and it looks nothing like this 1 so.... you are wrong and got dissed soooo....


WashburnGuitar9 - 2007-04-09

and also you shouldn't take these things seriously! it's like taking the game called Gears of War on xbox live seriousloy (except when i play it on live i dont) and that was kinda snooty the tsk tsk and the "shame on you" and why'd he go to a nasty site like ultimate-guitar? it's got the nastiest advertisments ever!!! so yea......


mi_koala - 2007-04-16

thats why i said i've updated it several times already.. the one on ultimate-guitar.com is the 4th incarnation of my tab already that's why it looks different. the one here, obviously an old one, was the very first one i ever posted thats why i expressed my disappointment seeing the tab i wrote just blatantly copied by some dude claiming it his own as well. don't you notice at least the format in which the tab was written? and the spacing of the chords on the tab? if you remove the lyrics and apply the minor changes i did on the tab, you'll notice they're exactly the same trust me, i wrote it.


mi_koala - 2007-04-16

and did you also have a look at the Happy Is A Yuppie Word tab? how do you explain that? i havent edited that tab unlike Stars and for this one he pretty much just erased the lyrics (except he left that grunt Jon does in the beginning..)

http://www.christianguitar.org/csong17954/Switchfoot-Happy-Is-A-Yuppie-Word

http://ultimate-guitar.com/tabs/s/switchfoot/happy_is_a_yuppie_word_tab.htm

and if you'll also notice there's a row somewhere in the tab that has an extra dash on the first line..
Gtr 1
e|-x-------------------------------------------------------------------------------|
B|-9 ..---------------------------------------------------------------------------|
G|-12..---------------------------------------------------------------------------|
D|-10..---------------------------------------------------------------------------|
A|-x------------------------------------------------------------------------------|
D|-10..---------------------------------------------------------------------------|

that can't be coincidence that if he wrote it he'd have the same mistake i did on the same row.. sorry again if im taking this a bit too seriously, but i take my intellectual property seriously.. i poured a lot of my time and effort into making it you know..i don't mind people using it, im all for it that's why i posted it! all i ask is that people just extend the courtesy if they want to use/post it on another website.


WashburnGuitar9 - 2007-05-03

yea, it could've been coincedence! i saw your tab at ultimateguitar.com and you cussed dude! and uhhh dude.....theres like...million of guitar players in the world so there is like 99.9 to 00.1 chance of them figuring it out on there own (the they is 99.9) and by the way if you wanna play "dirty second hands" i suggest you look at the one that has 5-01-07 or the newest one cuz it's the real thing!


Add a comment/correction

Complimentary Christian Ringtones
Dadamobile and CGR have teamed up to bring your favorite Christian artists right to your phone. Sign up today and get 10 complementary ringtones!
Tab Country
Did you know CGR has a sister site w/ country guitar tabs? Well we do! Its called Tab Country. It has a great archive with a lot of country tabs.
Rockin Tabs
Are you looking for a site that has rock guitar tabs? Then Rockintabs.com is the place for you. It is a budding site with many rock guitar tabs. Submit your tab today.
Tab Gallery
Tab Gallery has a compilation of christian, rock, and country tabs all in one place. Come visit us.