Guitar Tabs
song title    band name

Join Us Today!

Don't strum alone...
be a part of the largest online Christian music community. Browse thousands of guitar tabs and chat w/ musicians like yourself.


It's Free!

This tab has not yet been rated for accuracy.Sorry, but you must be logged in to rate this tab.
Click here to log-in, or you can click here to register.
(Registration is free)

All songs owned by corresponding publishing company. If you make copies of any song on this website, be sure to report your usage to CCLI.
Submitted by: undertone

King
Audio Adrenaline
CD - Until My Heart Caves In

I proclaim and decree that this tab is 100% with no variation
the way that I play it.  Otherwise, suggestions and corrections welcome.

Tabbed in standard tuning (AA may play it with different tuning Ė I donít know)

Song basics (as I hear it)
Intro 1x D-G-D-G
Verse 2x D-G-D-G
Chorus lead in (instrumental) 1x G-A-D-D-D/C#-D-G
Chorus 2x D-D/C#-Bm-A-G
Intro 1x D-G-D-G
Verse 2x D-G-D-G
Chorus lead in (instrumental) 1x G-A-D-D-D/C#-D-G
Chorus 2x D-D/C#-Bm-A-G
Chorus lead in (instrumental) 4x G-A-D-D-D/C#-D-G
Pre-chorus(?) 4x Em-F#m-Em-D (this is a guess - help!)
Chorus several times D-D/C#-Bm-A-G (fade out)

The basic verse progression sounds like D-G-D-G
riff played like this - listen to the song for when
to slide up to the 12th fret on each verse

First - 1x intro / 2x 1st verse
e|-----5---5-----5-5-----5---5-|-----7---7-----7-7-----------12-|
b|---7---7---7---------7---7---|---8---8---8---------8/12-12----|
g|-7-----------7-----7---------|-7-----------7-----7------------|
d|-----------------------------|--------------------------------|
a|-----------------------------|--------------------------------|
E|-----------------------------|--------------------------------|

e|-----5---5-----5-5-----5---5-|-----7---7-----7-7-----7---7----|
b|---7---7---7---------7---7---|---8---8---8---------8---8------|
g|-7-----------7-----7---------|-7-----------7-----7------------|
d|-----------------------------|--------------------------------|
a|-----------------------------|--------------------------------|
E|-----------------------------|--------------------------------|


Then power chord riff leading into the chorus G-A-D-D-D/C#-D-G

1x (listen for timing)
e|----------------------------|
b|----------------------------|
g|-------7--7-7-7-------------|
d|-5--7--7--7-7-7--5----------|
a|-5--7--5--5-4-5--5----------|
E|-3--5------------3----------|


Chorus - the basic chorus progression appears to be a
walk down from D to G as follows D----D/C#----D/B--D/A--G----
(- represents # of beats)

Or just D----D/C#----Bm--A--G----

A more meaty way below Ė I donít hear this happening in the song
but I like it
2x
e|------------------------------------|
b|------------------------------------|
g|-7--------7-7----7-7-7-4----4-------|
d|-7----5-7-7-7----7-7-7-4----4---5-5-|
a|-5----5-7-5-4----5-4-5-2----2-0-5-5-|
E|------3-5-----------------------2-3-|

2nd Verse
D - G - D - G
2x
Listen to the song for when to slide up to the 12th fret on each verse

e|-----5---5-----5-5-----5---5-|-----7---7-----7-7-----------12-|
b|---7---7---7---------7---7---|---8---8---8---------8/12-12----|
g|-7-----------7-----7---------|-7-----------7-----7------------|
d|-----------------------------|--------------------------------|
a|-----------------------------|--------------------------------|
E|-----------------------------|--------------------------------|

e|-----5---5-----5-5-----5---5-|-----7---7-----7-7-----7---7----|
b|---7---7---7---------7---7---|---8---8---8---------8---8------|
g|-7-----------7-----7---------|-7-----------7-----7------------|
d|-----------------------------|--------------------------------|
a|-----------------------------|--------------------------------|
E|-----------------------------|--------------------------------|

Then back to power chord riff leading into the chorus
G-A-D-D-D/C#-D-G
1x (listen for timing)
e|----------------------------|
b|----------------------------|
g|-------7--7-7-7-------------|
d|-5--7--7--7-7-7--5----------|
a|-5--7--5--5-4-5--5----------|
E|-3--5------------3----------|

Chorus
D----D/C#----D/B--D/A--G---- (- represents # of beats)

Or just D----D/C#----Bm--A--G----

Or this way
2x
e|------------------------------------|
b|------------------------------------|
g|-7--------7-7----7-7-7-4----4-------|
d|-7----5-7-7-7----7-7-7-4----4---5-5-|
a|-5----5-7-5-4----5-4-5-2----2-0-5-5-|
E|------3-5-----------------------2-3-|

Then power chord riff G-A-D-D-D/C#-D-G
On 4th time end on Em instead of G leading into pre-chorus
3x (listen for timing)
e|----------------------------|
b|----------------------------|
g|-------7--7-7-7-------------|
d|-5--7--7--7-7-7--5----------|
a|-5--7--5--5-4-5--5----------|
E|-3--5------------3----------|

1x (4th time)
e|----------------------------|
b|----------------------------|
g|-------7--7-7-7--9----------|
d|-5--7--7--7-7-7--9----------|
a|-5--7--5--5-4-5--7----------|
E|-3--5-----------------------|

Now comes a pre-chorus that could be Em-F#m-Em-D
This sounds good to me
4x
e|---0-0-0--0---0----2-2-2--2---2----0-0-0--0---0---2-2-2--2---2-|
b|--0---------0-----2---------2-----0---------0----3---------3---|
g|-0---------------2---------------0--------------2--------------|
d|---------------------------------------------------------------|
a|---------------------------------------------------------------|
E|---------------------------------------------------------------|

Chorus several times then fade out
D----D/C#----D/B--D/A--G---- (- represent # of beats)

Or just D----D/C#----Bm--A--G----

Or this way
e|------------------------------------|
g|------------------------------------|
b|-7--------7-7----7-7-7-4----4-------|
d|-7----5-7-7-7----7-7-7-4----4---5-5-|
a|-5----5-7-5-4----5-4-5-2----2-0-5-5-|
E|------3-5-----------------------2-3-|



Finally, I hear something like this over the fade out - play several times
e|---------------------------------------------|
b|---------------------------------------------|
g|-/7-7--7\6/7--9-6/7--/7-7-7\6/7--9--11--9--6-|
d|---------------------------------------------|
a|---------------------------------------------|
E|---------------------------------------------|

Comments about this tab

No comments/corrections found. Add your own

Complimentary Christian Ringtones
Dadamobile and CGR have teamed up to bring your favorite Christian artists right to your phone. Sign up today and get 10 complementary ringtones!
Tab Country
Did you know CGR has a sister site w/ country guitar tabs? Well we do! Its called Tab Country. It has a great archive with a lot of country tabs.
Rockin Tabs
Are you looking for a site that has rock guitar tabs? Then Rockintabs.com is the place for you. It is a budding site with many rock guitar tabs. Submit your tab today.
Tab Gallery
Tab Gallery has a compilation of christian, rock, and country tabs all in one place. Come visit us.