Guitar Tabs
song title    band name

Join Us Today!

Don't strum alone...
be a part of the largest online Christian music community. Browse thousands of guitar tabs and chat w/ musicians like yourself.


It's Free!

This tab has been rated a 5.00 out of 5 for accuracy. (1 vote)Sorry, but you must be logged in to rate this tab.
Click here to log-in, or you can click here to register.
(Registration is free)

All songs owned by corresponding publishing company. If you make copies of any song on this website, be sure to report your usage to CCLI.
Submitted by: I Am THE Hunter

Band: Demon Hunter
Song: I Have Seen Where It Grows
Album: Demon Hunter
Tuning:CGCFAD
Tabber: I Am THE Hunter (Antifire03@yahoo.com)
Corrections by Esteban Ramirez

Preverse
F:--7p5------------------
C:---------5p0------777--
G:5-----6--5p0--555----66
C:---------5p0------------

Verse:
C:0--1-0---6--7--6--7--0--1-0---6--7--6--9
G:0--1-0---3--4--3--4--0--1-0---3--4--3--6
C:00010000--0--0--0----00010000--0--0--0--

Prechorus
C:22-0h20h222-0h208-88-0h205-5101010101010
G:22-0h20h222-0h208-88-0h205-5101010101010
C:22-0h20h222-0h208-88-0h205-5101010101010

Chorus:
F:---7---7---77-------
C:0-------------------
G:0----5--------3/66/5
C:0--------0----3/66/5

Bridge
C:6-6-6-6-6-6-6-6-6-0
G:6-6-6-6-6-6-6-6-6-0
C:6-6-6-6-6-6-6-6-6-0

F:--------5---
C:---7-------7
G:5-----6-----
C:------------

Outro
F:------------------88888
C:00-----------0000-77777
G:00-4/3/4/3/4-0000-------
C:00-----------0000------- 

Comments about this tab

No comments/corrections found. Add your own

Complimentary Christian Ringtones
Dadamobile and CGR have teamed up to bring your favorite Christian artists right to your phone. Sign up today and get 10 complementary ringtones!
Tab Country
Did you know CGR has a sister site w/ country guitar tabs? Well we do! Its called Tab Country. It has a great archive with a lot of country tabs.
Rockin Tabs
Are you looking for a site that has rock guitar tabs? Then Rockintabs.com is the place for you. It is a budding site with many rock guitar tabs. Submit your tab today.
Tab Gallery
Tab Gallery has a compilation of christian, rock, and country tabs all in one place. Come visit us.