Guitar Tabs
song title    band name

Join Us Today!

Don't strum alone...
be a part of the largest online Christian music community. Browse thousands of guitar tabs and chat w/ musicians like yourself.


It's Free!

This tab has been rated a 5.00 out of 5 for accuracy. (2 votes)Sorry, but you must be logged in to rate this tab.
Click here to log-in, or you can click here to register.
(Registration is free)

All songs owned by corresponding publishing company. If you make copies of any song on this website, be sure to report your usage to CCLI.
Submitted by: sKaRoCkS

Artist:    Veggie Tales
Song:     Credits Song
Album:  The Best of Ten Years 
             (it is at the end of "Jonah: A Veggie Tales Movie)
                   [among countless other albums and cuts]

Tabbed By:   sKaRoCkS

(the timing is when they actually start singing)
(It's really played on a keyboard set to an ACORDIAN sound.)

    Ab       Ab       Ab       A      B   A     B        E D     Db    C   
:00                        :05                      :12                    :16           
|---------------------------|------------------------|----------------------|
|---------------------------|---------0---------0----|----------------------|
|---1--------1--------1-----|--2----------2----------|-----3-----2-----1----|
|---------------------------|------------------------|---2------------------|
|---------------------------|------------------------|----------------------|
|---------------------------|------------------------|----------------------|


      A    B    A     B       A     B  D     Db    C 
:16,:31                   :23                              :30,:45
|--------------------------|----------------------------------|
|----------0----------0----|--------0-------------------------|
|-o---2---------2----------|--2--------3-----2-----1--------o-|
|-o------------------------|--------------------------------o-|
|--------------------------|----------------------------------|
|--------------------------|----------------------------------|

note the repeat signs-they are not chords. 
(Also note the notes above the tab.)

THIS IS UP TO THE PART WHERE EVERYONE COMES TOGETHER.
AND THEY HAVE MUTIPLE INSTRUMENTS PLAYING MUTIPLE THINGS.


if you have an acoustic play the notes chords. not picking. it will sound 
better. but if you have an electric then pick it and it will hang on
like it's does on the album. 

Comments about this tab

sKaRoCkS - 2005-10-10

the best Veggie Tales song ever


sKaRoCkS - 2005-10-21

I'm sorry,

I miss-typed. It goes like this:

:12 E D Db C
|------------------|
|------3---2---1---|
|------------------|
|---2--------------|
|------------------|
|------------------|

and:


:23 E B D Db C
|---------------------|
|------0---3---2---1--|
|---------------------|
|---2-----------------|
|---------------------|
|---------------------|


The note names above are correct. But if you look, it's on the wrong string.
Just play it like I just posted it above.


Add a comment/correction

Complimentary Christian Ringtones
Dadamobile and CGR have teamed up to bring your favorite Christian artists right to your phone. Sign up today and get 10 complementary ringtones!
Tab Country
Did you know CGR has a sister site w/ country guitar tabs? Well we do! Its called Tab Country. It has a great archive with a lot of country tabs.
Rockin Tabs
Are you looking for a site that has rock guitar tabs? Then Rockintabs.com is the place for you. It is a budding site with many rock guitar tabs. Submit your tab today.
Tab Gallery
Tab Gallery has a compilation of christian, rock, and country tabs all in one place. Come visit us.