Guitar Tabs
song title    band name

Join Us Today!

Don't strum alone...
be a part of the largest online Christian music community. Browse thousands of guitar tabs and chat w/ musicians like yourself.


It's Free!

This tab has not yet been rated for accuracy.Sorry, but you must be logged in to rate this tab.
Click here to log-in, or you can click here to register.
(Registration is free)

All songs owned by corresponding publishing company. If you make copies of any song on this website, be sure to report your usage to CCLI.
Submitted by: joellaw44

Song: You Are My God
Artist: 38th Parallel
Album: Turn the Tides

Well, this isn't the whole song, but it's enough to get you started.  Hope you
enjoy.

 Intro/Chorus
 Dist.
  PM--|
|------------------------|-----------------------|
|-------7-7-------7-5-5--|-----------7--5-5-5-5--|
|-------6-6-------6-6-6--|-----------6--4-4-4-4--|
|-4-4-4-4-4-4-4-4-4-4-4--|-0-0-0-0--(0)----------|
|-4-4-4-----4-4-4--------|-0-0-0-0--(0)----------|
|-4-4-4-----4-4-4--------|-0-0-0-0--(0)----------|


  PM--|       PM--|
|--------------------------|-----------------|
|-------10-10-------9------|-----------------|
|--------9--9-------9-9-9--|-----------------|
|-7-7-7--7--7-7-7-7-7-7-7--|-2-4-0-4-4-4-4-4-|
|-7-7-7-------7-7-7-----7--|-2---0-----------|
|-7-7-7-------7-7-7-----7--|-2---0-----------|


 Verse
 Clean
|-----------------------------|-----------------------------|
|-----------------------------|-----------------------------|
|-----------------------------|-----------------------------| 2x
|---6-6-(6)-6---6-6---6---6h7-|---4-4-(4)-4---4-4---6---6h7-|
|-----------------------4-----|-----------------------0-----|
|-4-----------4-----4---------|-0-----------0-----0---------|


|-----------------------------|-----------------------------|
|-----------------------------|-----------------------------|
|---------------------6h7p6---|---------------------7p6---6-|
|---6-6-(6)-6---6-6---------7-|---4-4-(4)-4---4-4-------7---|
|-----------------------------|-----------------------------|
|-4-----------4-----4---------|-0-----------0-----0---------|


|-----------------------------|------------------------|
|-----------------------------|------------------------|
|---------------------6h7p6---|------------------------|
|---6-6-(6)-6---6-6---------7-|---4-4-(4)-4---2-0---0--|
|-----------------------------|------------------------|
|-4-----------4-----4---------|-0-----------0-----0----|


 Pre-Chorus
|----------|---------2p0-5p0-------|
|----------|-----5p3---------2p0---|
|----------|---------------------2-|
|-2--------|-0---------------------|
|-2--------|-0---------------------|
|-2--------|-0---------------------|



*********************************************************************
* Generated using Power Tab Editor by Brad Larsen -
      http://powertab.guitarnetwork.org *
*********************************************************************

Comments about this tab

ice_wiz - 2006-02-10

joellaw44 = best tabber on CGR.


Add a comment/correction

Complimentary Christian Ringtones
Dadamobile and CGR have teamed up to bring your favorite Christian artists right to your phone. Sign up today and get 10 complementary ringtones!
Tab Country
Did you know CGR has a sister site w/ country guitar tabs? Well we do! Its called Tab Country. It has a great archive with a lot of country tabs.
Rockin Tabs
Are you looking for a site that has rock guitar tabs? Then Rockintabs.com is the place for you. It is a budding site with many rock guitar tabs. Submit your tab today.
Tab Gallery
Tab Gallery has a compilation of christian, rock, and country tabs all in one place. Come visit us.